Nofx - Green Corn Chords & Tabs

 

Green Corn Chords & Tabs

Nofx Chords & Tabs

Version: 2 Type: Bass Tab 0 ratings
1 star 2 stars 3 stars 4 stars 5 stars
comments

Green Corn Bass Tab

Song:Green Corn
Band:Nofx
Album:Ribbed
tabbed by:Chris Mooney(Moonbbad@aol.com)

I am not really bothering to tab out the rhythm perfectly 
because it changes too much so just figure out, its not that difficult.
Intro:
G:--------------------                    G:----------------------
D:--------------------                    D:3-33-3-33-3-33-3-33---
A:0-00-0-00-0-00-0-00- X2 then play this: A:----------------------
E:--------------------                    E:----------------------

Repeat the whole intro 2 times
Don't play anything during the drum part, until it plays the cool drum 
lick twice.  Then play this:
G:---------------------------------------------------------------
D:---------------------------------------------------------------
A:---------------------------------------------------------------
E:1-0-1-0-33333333-1-0-1-0-3-----5-----3-------------------------

Verse: (Figure out the rhythm yourself.  Here are the main notes.)
G:---------------------------------------------------------------
D:---------------------------------------------------------------
A:--------3-----------3------------------------------------------
E:5---1-------3---1----------------------------------------------
[ Tab from: http://www.guitartabs.cc/tabs/n/nofx/green_corn_btab_ver_2.html ]
After Verse Play this:
G:---------------------------------------------------------------
D:---------------------------------------------------------------
A:---------------------------------------------------------------
E:55555555-11111111-55555555-11111111-5555555555-----------------

Repeat Verse (rhythm Changes a little bit)
After Second Verse here is the little bit before the cool drum lick again
and the guitar solo.
G:---------------------------------------------------------------
D:---------------------------------------------------------------
A:----------------------0-2-3-2-5-3------------------------------
E:5>------3>-------1>---------------0----------------------------

Play this during Guitar Solo:
G:---------------------------------------------------------------
D:---------------------------------------------------------------
A:------------------55555555-------------------------------------Repeat
E:55555555-33333333----------55555555----------------------------   x2
Then Play the verse again.

After you repeat verse play this:
G:---------------------------------------------------------------
D:---------------------------------------------------------------
A:---------33333333-55555555-0-2-3-2-----------------------------
E:55555555---------------------------3-5-------------------------
Thats it!  If you have changes for it tell me, but it is right.
Email me.
Comments