Nofx - Gonoherpasyphilaids Chords & Tabs

 

Gonoherpasyphilaids Chords & Tabs

Nofx Chords & Tabs

Version: 1 Type: Tab 0 ratings
1 star 2 stars 3 stars 4 stars 5 stars
comments

Gonoherpasyphilaids Tab

GONOHERPASYPHILAIDS by NOFX. Album: Ribbed (1991)                         1/3
Great song and cool solo.
A=wide guitar  B=large guitar  A&B=both guitars
:
# main-riff #A&B  X3                       
E-----------------/muted\----------|   
B----------------------------------|   
G----------7-7--7---9---9-9-9--9---|   
D----------7-7--7-7-9-7-9-9-9--9---|   
A---4-4--4-5-5--5-7-7-7-7-7-7--7---|   
E---5-5--5-------------------------|
:
# verse #A          *=play about 16X         
E-----------------------------------------------|
B---/-muted-\--------*--------------------------|
G----*-------*------7--------*----5-------------|
D---2-------2-------7-------9-----5--*----------|
A---0-------0-------5-------9-----4-5-----/12---|
E---------------------------7-------------------|
# verse #B          *=play about 16X
E-----------------------------------------------|
B---/-muted-\--------*--------------------------|
G----*-------*------7-------------5-------------|   > Then play main-riffA&B
D---2-------2-------7-------9---9-5-------------|     and verseA or verseB.
A---0-------0-------5-------9---9-4-5---9-------|
E---------------------------7---7---------------|
:
# main-riff2 #A&B
E-----------------/muted\--------------------------------------|   
B--------------------------------------------------------------|   
G----------7-7--7---9---9-9-9--9--------9-9--9-7-7--7-9-9--9---|   
D----------7-7--7-7-9-7-9-9-9--9--------9-9--9-7-7--7-9-9--9---|   
A---4-4--4-5-5--5-7-7-7-7-7-7--7-4-4--4-7-7--7-5-5--5-7-7--7---|   
E---5-5--5-----------------------5-5--5------------------------|
:
# bridge #A         *=play 16X palm-muted       #=play 12X
E-----------------------------------------------------|
B-----------------------------------------------------|
G----*-------#----------------------------------------|
D--10-------7-----------------------------------------|
A--10-------7-----------------------------------------|
E---8-------5-----------------------------------------|
# bridge #B         *=play 16X palm-muted    (=bend-up
E-----------------------------------------------------|
B-------------10---8----------(-----------------------|
G----*---------9-----11-9-8-9-7---7-5---5-------------|
D--10-------7-------------------------7---7-6-5-------|
A--10-------------------------------------------7-6---|
E---8-------------------------------------------------|
:
# bridge2 #A  *=play 16X palm-muted   #=play 11-12X
E--------------------------------------|
B--------------------------------------|
G----*-------#-------------------------|
D--10-------3--------#-------#---------|
A--10-------3-------3-----5-3------5---|
E---8-------1--------------------------|
# bridge2 #B  *=play 16X palm-muted   #=play 12X
E--------------------------------------|
B--------------------#-----------------|
G----*-------#------5--------#---------|
D--10-------3-------5-------3----------|
A--10-------3-------3-------3----------|
E---8-------1---------------1----------|
:
>>>>>>>>>>>>>to next page...
:
:
GONOHERPASYPHILAIDS                                                       2/3
:
# verse #A          *=play about 16X      (All the times...)
E-----------------------------------------------------------------|
B---/-muted-\--------*--------------------------7-7-7-7-7-7-7-8---|
G----*-------*------7--------*-------*----5-----------------------|
D---2-------2-------7-------2-------9-----5-----------------------|
A---0-------0-------5-------2-------9-----4-5---------------------|
E---------------------------0-------7-----------------------------|
# verse #B          *=play about 16X
E-----------------------------------------------------------------|
B---/-muted-\--------*-------*------------------------------------|
G----*-------*------7-------9--------*----5-----------------------|  
D---2-------2-------7-------9-------9-----5--*--------------------|  
A---0-------0-------5-------7-------9-----4-5---------------------|
E-----------------------------------7-----------------------------|
:
# solo #A                                                                    >
E-----7---------------------------------------------------------------------->
B--10---10-8-7---7-8-10-8-7-------------7------------------------------------>
G--------------9------------9-7---6-7-9---9-7-6---6-7-9-7-6-----------6-7p6-->
D-----------------------------------------------9-----------9-7---7-9-------7>
A---------------------------------------------------------------------------->
E---------------------------------------------------------------------------->
# solo-background #B                                                         >
E---------------------------------------------------------------------------->
B---------------------------------------------------------------------------->
G---------------------7-------------------------------7---------------------->
D---7-----------------7---------------7---------------7---------------7------>
A---7-----------------5---------------7---------------5---------------7------>
E---5---------------------------------5-------------------------------5------>
>soloA     p=pull-off                         \=slide down
>----------------------------------------------------------------------------|
>-----------8-7-10-----------7-8-7-10-7-7---------8-7------------------------|
>---9---7-9--------9-7-----9--------------9-9-7-9------9---7-----------------|
>----------------------------------------------------------------7---5-4-----|
>------------------------------------------------------------------------7-5\|
>----------------------------------------------------------------------------|
>solo-backgroundB              ^=pause          *=play 8X
>----------------------------------------------------------------------------|
>-----------------------------------------------------------*----------------|
>-----------7---------------*----------------*-----------^-7-----------------|
>-----------7--------------9----------------9------------^-7---------*-------|
>-----------5--------------9----------------9------------^-5--------9-------\|
>--------------------------7----------------7--------------------------------|
:
# bridge3 #A  !palm-muted!     
[ Tab from: http://www.guitartabs.cc/tabs/n/nofx/gonoherpasyphilaids_tab.html ]
Comments