Nofx - Gonoherpasyphilaids Chords & Tabs

 

Gonoherpasyphilaids Chords & Tabs

Nofx Chords & Tabs

Version: 3 Type: Bass Tab

Gonoherpasyphilaids Bass Tab

# main # X3
G-------------------------------|
D-------------------------------|
A---0-0-0-5-5-5-7-7-7-7-7-7-7---|
E-------------------------------|
:
# verse #   *=play 8X   #=play 5-6X
G----------------------------------------------------------------------------|
D----*-------*-------*-------*-------#-------#-------#-------#-------#-------#
A---0-------0-------0-------0-------5-------5-------2-------2-----4-5-------5|
E----------------------------------------------------------------------------|
:
Then play mainX3 and verse.
:
# main2 #
G--------------------------------------------------------|
D--------------------------------------------------------|
A---0-0-0-5-5-5-7-7-7-7-7-7-7--0-0-0-7-7-7-5-5-5-7-7-7---|
E--------------------------------------------------------|
:
# bridge #   *=play 8X  #=play 6X (How could this happen...)                >
G--------------------------------------------------------------------------->
D----*-------*----------5-7-5---------5-7-5------*-------*-------#-------#-->
A---3-------3-------0-0-------7-5-0-0-------7-5-3-------3-------8-------8--->
E--------------------------------------------------------------------------->
>bridge
>-------------------------------|
>----#-------#-------#-------#--|
>---3-------3-------8-------8---|
>-------------------------------|
:
# verse3 #  *=play 8X   #=play 5-6X  (All the times I should...)>
G--------------------------------------------------------------->
D----*-------*-------*-------*-------#-------#-------#-------#-->
A---0-------0-------0-------0-------5-------5-------7-------7--->
E--------------------------------------------------------------->
>verse3
>-------------------------------|
>----#-------#-------#-------#--|
>---2-------2-----4-5-------5---|
>-------------------------------|
:
# solo-bg #   *=play 6X                                             >
G------------------------------------------------------------------->
D----*-------*-------*-------*-------*-------*-------*-------*------>
A---0-------5-------0-------5-------0-------5-------2-------2-----4->
E------------------------------------------------------------------->
>solo-bg                          |1:33
>---------------------------------------------------|
>--*-------*----------------------7-7-7-7-7-7-7-7---|
>-5-------5-----/12---------------------------------|
>---------------------------------------------------|
[ Tab from: http://www.guitartabs.cc/tabs/n/nofx/gonoherpasyphilaids_btab_ver_3.html ]