Nofx - Franco Unamerican Chords & Tabs

 

Franco Unamerican Chords & Tabs

Nofx Chords & Tabs

Version: 1 Type: Tab 0 ratings
1 star 2 stars 3 stars 4 stars 5 stars
comments

Franco Unamerican Tab

NOFX - Franco Un-American
normal tuning
pretty basic, sounds just like their other song Quart In Session
i'm almost positive this is right, altho there might be another set of chords before the chorus.

intro
|-----------------
|-----------------
|-x-x-/5----------
|-x-x-/5----------
|-x-x-/3----------
|-----------------
[ Tab from: http://www.guitartabs.cc/tabs/n/nofx/franco_unamerican_tab.html ]
"i never thought about the universe..." - main riff
|-------------------------
|-------------------------
|---5---7-----5-7---------
|-5-5-5-7-2-2-5-7---------
|-5-3-5-5-2-2-3-5---------
|-3---3---0-0-------------

"that's no way to go..." - chorus
|------------------------
|------------------------
|---5---4----------------
|-5-5-5-4----------------
|-5-3-5-2----------------
|-3---3------------------

- order:
1. intro
2. main riff (quieter)
3. main riff
4. main riff (palm muted)
5. main riff
6. chorus
7. main riff
8. main riff (verse)
9. main riff (palm muted)
10. main riff then G5
11. [interlude, play nothing]
12. chorus

email me foolpool22@yahoo.com for questions or corrections
Comments