Nofx - Franco Unamerican Chords & Tabs

 

Franco Unamerican Chords & Tabs

Nofx Chords & Tabs

Version: 4 Type: Bass Tab 0 ratings
1 star 2 stars 3 stars 4 stars 5 stars
comments

Franco Unamerican Bass Tab

NOFX Franco un-American Bass tab
From the album War On Errorism
Track 3
Tabbed by Liam
Email: guitar_rocker_47@hotmail.com
Tuning: Standard

Intro (guitar plays)

Verse
G|-----------------------------------------------------|-------------------------|
D|----------------------2-2-2--------------------------|-------------------------|
A|--------3-3-3--5-5-5--------------------3-3-3--5-5-5-|--------3-3-3------------|
E|-3-3-3---------3-3-3---------5-5-5-5-5---------------|-3-3-3---------3-3-3-----|

G|-------------------------------------------------------------------------------|
D|-2-2-2-------------------------------------------------------------------------|
A|-------------------3-3-3--5-5-5------------------------------------------------|
E|--------5-5-5-5-5--------------------------------------------------------------|

Verse Part 2
G|-----------------------------------------------------|-------------------------|
D|----------------------2-2-2--------------------------|-------------------------|
A|--------3-3-3---------------------------3-3-3--5-5-5-|--------3-3-3------------|
E|-3-3-3---------3-3-3---------5-5-5-5-5---------------|-3-3-3---------3-3-3-----|

G|---------------------------------------|---------------------------------------|
D|--2-2-2--------------------------------|---------------------------------------|
A|--------------------3-3-3--5-5-5-------|---------------------------------------|
E|---------5-5-5-5-5---------------------|---------------------------------------|

Pre Chorus
G|-------------------------------------------------------------------------------|
D|-------------------------------------------------------------------------------| 
A|----------3-3-3-3-----------7-7-7-7-------------------3-3-3-3--5-5-5-5---------|
E|-3-3-3-3-----------3-3-3-3-----------5-5-5-5-5-5-5-5---------------------------|
PM *********************************************************************

G|-------------------------------------------------------------------------------|
D|-------------------------------------------------------------------------------| 
A|----------3-3-3-3-----------7-7-7-7-------------------3-3-3-3--5-5-5-5---------|
E|-3-3-3-3-----------3-3-3-3-----------5-5-5-5-5-5-5-5---------------------------|
PM *********************************************************************

G|-------------------------------------------------------------------------------|
D|-------------------------------------------------------------------------------|
A|----------5-5-5-5-----------3-3--5-5-------------------------------------------|
E|-3-3-3-3-----------5-5-5-5-----------------------------------------------------|

Chorus (this doesn't look right but it sounds right, trust me)
G|------------------------------------|------------------------------------------|
D|------------------------------------|------------------------------------------|  
A|----------5-5-5-5-----------3-3-3-3-|----------5-5-5-5-----------3-3-3-3-------|
E|-3-3-3-3-----------7-7-7-7----------|-3-3-3-3-----------7-7-7-7----------------|
[ Tab from: http://www.guitartabs.cc/tabs/n/nofx/franco_unamerican_btab_ver_4.html ]
G|------------------------------------|------------------------------------------|
D|------------------------------------|------------------------------------------|  
A|----------5-5-5-5-----------3-3-3-3-|----------5-5-5-5-------------------------|
E|-3-3-3-3-----------7-7-7-7----------|-3-3-3-3-----------0----------------------|

Chorus 2
G|---------------------------------------|---------------------------------------|
D|----------------2-2----------------0-0-|----------------2-2----------------0-0-|
A|------3-3------------0-0-0-0--3-3------|------3-3------------0-0-0-0--3-3------|
E|-3-3-------3-3-------------------------|-3-3-------3-3-------------------------|

G|-------------------------------------------------------------------------------|
D|-------------------------------------------------------------------------------|
A|-------------------------------------------------------------------------------|
E|-3-3-3-3-3-3-3-3-3-3-3-3-------------------------------------------------------|
     ^   ^   ^   ^   ^   ^
(Piano Solo)

Outro (pretty much the same as pre chorus except no palm mute)
G|-------------------------------------------------------------------------------|
D|-------------------------------------------------------------------------------|
A|----------3-3-3-3-----------7-7-7-7-------------------3-3-3-3--5-5-5-5---------|
E|-3-3-3-3-----------3-3-3-3-----------5-5-5-5-5-5-5-5---------------------------|

Order

Intro
Verse
Verse part 2
Pre chorus
Chorus
Verse part 2
Verse
Pre chorus
Chorus 2
(Piano Solo)
Outro

(Verse)
I never thought about the universe,
It made me feel small
Never thought about the problems of this planet at all
Global warming, radioactive sights, imperialistic wrongs
And animal rights No!

(Pre Chorus)
Why think all the bad things when life is so good
Why (????????????) when there is always a could
Let the whales worry about the poisons in the sea
I've decided California - its foreign policy

I don't wont changes, unknown reactions
You're dilemmas are my distractions

(Chorus)
That's no way to go Franco un American
No way to go Franco un American
No way to go Franco un American
No way to go Franco, Franco un American

(Verse)
I never looked around, Never (???)
Then I read some how its in, now I always deep breathed
And now I can't sleep through years of apathy, all because
I read a little (?????????????)

(Pre Chorus)
I'm needed vegetation cos a fast food nation
Im wearing comfortable shoes cos of globalisation
Im watching Michael Moore expose the awful truth
Im listening to public enemy and raving youth

(Chorus 2)
I see no world peace, cos of (????????) forces
I eat no breath mints cos of (????????)
Now I cant believe what an absolute failure
The president laughing cos he voted for (?????)

(Piano Solo)
That's no way to go Franco un American
No way to go Franco un American
No way to go Franco un American
Where can we go Franco un American

(Outro)
I wanna (??????????????)
Or hang down low with the nice Australians
I don't wanna be another (????????)
What are we gonna do Franco, Franco un American

Sorry about the lyrics I don't have the CD so I wrote the lyrics by ear. Rate this, if you like it, THANKS!
Comments