Nofx - Franco Unamerican Chords & Tabs

 

Franco Unamerican Chords & Tabs

Nofx Chords & Tabs

Version: 2 Type: Bass Tab 0 ratings
1 star 2 stars 3 stars 4 stars 5 stars
comments

Franco Unamerican Bass Tab

   
-------------------------------------------------------------------------------
			  Franco Unamerican - NOFX
-------------------------------------------------------------------------------

Tabbed By :TriggerHappy  

Tuning:EDAG

| /  slide up
| \  slide down
| h  hammer-on
| p  pull-off
| ~  vibrato
| +  harmonic
| x  Mute note


Riff 1
  
  G|----------------|
  D|----------------|
  A|----0-0---------|
  E|3-3-----3-3-0-0-|

Riff 2

  G|----------------|
  D|----------------|
  A|3-3-0-0-3-3-5-5-|
  E|----------------|

Riff 3
[ Tab from: http://www.guitartabs.cc/tabs/n/nofx/franco_unamerican_btab_ver_2.html ]
  G|----------------|
  D|----------------|
  A|----3333--------|
  E|3333----33330000|

Riff 4

  G|----------------|
  D|----------------|
  A|3333000033335555|
  E|----------------|

Riff 5
  
  G|--------------------------------|
  D|--------------------------------|
  A|--------5-5-5-----------3---5---|
  E|3-3-3-----------0-0-0-----------|

Riff 6

  G|----------------|
  D|----------------|
  A|----5-------3---|
  E|3-------3-------|

Riff 7

  G|----------------|
  D|----------------|
  A|----------------|
  E|3-------2-------|

Order
[1X1,2x2]x3
[3x1,4x1]x2
5x1
6x2
[1X1,2x2]x3
[3x1,4x1]x2
[1X1,2x1]x1
1x1
7x4
6x2
Comments