Nofx - Franco Un American Chords & Tabs

 

Franco Un American Chords & Tabs

Nofx Chords & Tabs

Version: 2 Type: Tab 1 rating
1 star 2 stars 3 stars 4 stars 5 stars
comments

Franco Un American Tab

   
Michael_buelens@hotmail.com


							Franco-unamerican (NOFX)





Intro A (gitaar A) (distortion) 	          (Blijft spelen tot de vers)

e|----------------------------------------------
A|----------------------------------------------
D|----------------------------------------------
G|----------------------------------------------
B|--10--10--5--10--10--5--10--10--5--10--10--5--
E|----------------------------------------------




Vers A (gitaar B) (valt in) (distortion) (+zang valt in)      X4

e|--------------|--------------|--------------|--------------|
A|--------------|--------------|--------------|--------------|
D|--------5--5--|--------9--9--|--------------|--5--5--7--7--|
G|--5--5--5--5--|--5--5--9--9--|--7--7--7--7--|--5--5--7--7--|
B|--5--5--3--3--|--5--5--7--7--|--7--7--7--7--|--3--3--5--5--|
E|--3--3--------|--3--3--------|--5--5--5--5--|--------------|




Intro c (valt in na 2X intro B) (Synth. Bas)						  X2

e|---------------------|-------------------|---------------------|---------------------|
A|--14--14--14---------|--14-14-14-16--14--|--14--14--14---------|--14-14-14-18-16-14--|
D|---------------------|-------------------|---------------------|---------------------|
G|---------------------|-------------------|---------------------|---------------------|
B|---------------------|-------------------|---------------------|---------------------|
E|---------------------|-------------------|---------------------|---------------------|




Vers B (Gitaar A) (Mute)				  	             X2

e|------------------|-----------------|-----------------|-----------------|
A|------------------|-----------------|-----------------|-----------------|
D|----------5-5-5-5-|---------9-9-9-9-|-----------------|-5-5-5-5-7-7-7-7-|
G|--5-5-5-5-5-5-5-5-|-5-5-5-5-9-9-9-9-|-7-7-7-7-7-7-7-7-|-5-5-5-5-7-7-7-7-|
B|--5-5-5-5-3-3-3-3-|-5-5-5-5-7-7-7-7-|-7-7-7-7-7-7-7-7-|-3-3-3-3-5-5-5-5-|
E|--3-3-3-3---------|-3-3-3-3---------|-5-5-5-5-5-5-5-5-|-----------------|




Vers C (Gitaar B) (Distortion)					   X1
[ Tab from: http://www.guitartabs.cc/tabs/n/nofx/franco_un_american_tab_ver_2.html ]
e|---------------|--------------|--------------|---------------|
A|---------------|--------------|--------------|---------------|
D|---------------|--------------|--------------|-5-5--5--7--7--|
G|--5-5--5-5--5--|-5-5--5-5--5--|-2-2--2-2--2--|-5-5--5--7--7--|
B|--5-5--5-5--5--|-5-5--5-5--5--|-2-2--2-2--2--|-3-3--3--5--5--|
E|--3-3--3-3--3--|-2-2--2-2--2--|-0-0--0-0--0--|---------------|



Refrein (Gitaar A + B) (Distortion)	X3				   	  X1

e|------------------|-----------------|		e|------------------|-----------|	
A|------------------|-----------------|		A|------------------|-----------|
D|----------7-7-7-7-|---------5-5-5-5-|		D|----------7-7-7-7-|-2---------|
G|--5-5-5-5-7-7-7-7-|-2-2-2-2-5-5-5-5-|		G|--5-5-5-5-7-7-7-7-|-2---------|
B|--5-5-5-5-5-5-5-5-|-2-2-2-2-3-3-3-3-|		B|--5-5-5-5-5-5-5-5-|-0---------|
E|--3-3-3-3---------|-0-0-0-0---------|		E|--3-3-3-3---------|-----------|


Tussenstuk (Synth. Bas)									  X2

e|---------------------|-------------------|---------------------|---------------------|
A|---------------------|-------------------|---------------------|---------------------|
D|---------------------|-------------------|---------------------|---------------------|
G|---------------------|--7----------------|---------------------|--5------------------|
B|--5------------------|--5----------------|--2------------------|--3------------------|
E|--3------------------|-------------------|--0------------------|---------------------|




				   
Einde  (Gitaar A + B) (Distortion)				X2	
e|--------------|--------------|--------------|--------------|
A|--------------|--------------|--------------|--------------|
D|--------------|--7--7--7--7--|--------------|--5--5--5--5--|
G|--5--5--5--5--|--7--7--7--7--|--2--2--2--2--|--5--5--5--5--|
B|--5--5--5--5--|--5--5--5--5--|--2--2--2--2--|--3--3--3--3--|
E|--3--3--3--3--|--------------|--0--0--0--0--|--------------|



Intro A
Vers A    X4
Intro C   X2
Vers B    X2
Vers C    X1
Refrein   X3 X1

Intro A
Vers A    X2
Intro C   X2
Intro B   X2
Vers A    X2
Vers B    X2
Vers A    X2

tussenstuk   x2

Einde   x1



















Comments