Nofx - Food Sex And Ewe Chords & Tabs

 

Food Sex And Ewe Chords & Tabs

Nofx Chords & Tabs

Version: 1 Type: Tab 0 ratings
1 star 2 stars 3 stars 4 stars 5 stars
comments

Food Sex And Ewe Tab

FOOD, SEX & EWE by NOFX. Album: Ribbed (1991)                             1/2
Ska-typic song with nice solo. Try to keep the rhythm right.
A=wide guitar  B=large guitar  A&B=both guitars
:
# intro #A X2            +=note played only first time
E-----------------------------------------------------|
B-----------------------------------------------------|
G----+------------------------------------------------|
D---2-------------------------------------------------|
A---2-------------------------------------------------|
E---0-------------------------------------------------|
# intro #B X2    h=hammer-on           
E-----------------------------------------------------|
B-----------------------------------------------------|
G-----------------------------------------------------|
D-----------------------5-----------------------------|
A---5h7-7-7-7-7-5h7-7-7-----5h7-7-7-7-7-5h7-7-7-7-7---|
E-----------------------------------------------------|
:
# intro2 #A                    brackets X2
E----(---------------------------------------------)-------------------------|
B----(---------------------------------------------)-------------------------|
G----(---------------------------------------------)-------------------------|
D---2(---------------------------------------------)---5---------------------|
A---2(---------------------------------------------)---5---------------------|
E---0(---------------------------------------------)---3---------------------|
# intro2 #B     /=slide up    X=left hand-mute    brackets X2
E--(-----------------------------------------------)-------------------------|
B--(-----------------------------------------------)-------------------------|
G--(11/12-12-11/12-12-14---11/12-12-11/12---X-X-X-X)--11/12-12-11/12-12-14---|
D--(11/12-12-11/12-12-14---11/12-12-11/12---X-X-X-X)--11/12-12-11/12-12-14---|
A--(-----------------------------------------------)-------------------------|
E--(-----------------------------------------------)-------------------------|
:
Then play introA or introB and then intro2A X« or intro2B X«.
:
# bridge #A       ^=pause
E-------------------------------------------------------------|
B-------------------------------------------------------------|
G-------------------------------------------------------------|
D---5-^-----------------------^-5-^---------------------------|
A---5-^-----------------------^-5-^---------------------------|
E---3-^-----------------------^-3-^---------------------------|
# bridge #B      !acoustic!
E-------------------------------------------------------------|
B-------------------------------------------------------------|
G-------------------------------------------------------------|
D-------------------------------------------------------------|
A-----0-2-3--0-2-3-3-3-5--5-5-5---0-2-3--0-2-3-3-3-5--5-5-5---|
E---3---------------------------3-----------------------------|
:
# ska-verse #A&B  X4              # chorus #A&B
E-----------------------------|   E---------------------------|
B-----------------------------|   B---------------------------|
G---------------12-12-14-14---|   G---5---7---5---7---5---7---|
D---12-12-12-12-10-10-12-12---|   D---5---7---5---7---5---7---|
A---10-10-10-10---------------|   A---3---5---3---5---3---5---|
E-----------------------------|   E---------------------------|
:
Play ska-verse X6, chorus and then guitarB plays bridgeB X2 and guitarA is
quiet.
:
>>>>>>>>>>>to next page...
:
:
:
:
:
FOOD, SEX & EWE                                                           2/2
:
# acoustic solo #B     (=slow bend up       GuitarA stays quiet   >
E----------------------------------------------------------------->
B----------------------------------------------------------------->
G----------------------------------------------------------------->
D---17-17-17-17-17-16-14-12--12------17-17-17-17-17-16-14-16-17--->
A----------------------------------------------------------------->
E----------------------------------------------------------------->
>acoustic soloB                                      >
>---------------------------------------------------->
>---------------------------------------------------->
>----------------------14-16-14--16-17-16-14-16------>
>---14-14-17-17--14-17--------------------------12--->
>---------------------------------------------------->
>---------------------------------------------------->
>acoustic soloB
>-----------------------------------------|
>-----------------------------------------|  > Then play ska-verseA&B,
>----------------------14-16-14--(--------|    chorus A&B and ska-verseA&B X2 
>---14-14-17-17--14-17----------16---17---|    (end with first chord).
>-----------------------------------------|
>-----------------------------------------|
:
Neat! 
Tabbed by Jussi Heinonen 5.10.1997.

[ Tab from: http://www.guitartabs.cc/tabs/n/nofx/food_sex_and_ewe_tab.html ]
Comments