Nofx - Falling In Love Chords & Tabs

 

Falling In Love Chords & Tabs

Nofx Chords & Tabs

Version: 1 Type: Bass Tab 0 ratings
1 star 2 stars 3 stars 4 stars 5 stars
comments

Falling In Love Bass Tab

Song: Falling in Love
Band: NOFX
Album: So Long And Thanks For All The Shoes
tabbed by: Olya: olly_r@hotmail.com, icq: 20316789

intro (when whole band plays)

G:---------------------------------------------------------------
D:-----0--2-2-0------0-------------------------------------------
A:---------------3-3---------------------------------------------
E:-3-3------------------3-3-3------------------------------------


G:------------2--4-4-2--0----------------------------------------
D:-----0--2-2----------------------------------------------------
A:---------------------------------------------------------------
E:-3-3-----------------------------------------------------------

Riff 1
[ Tab from: http://www.guitartabs.cc/tabs/n/nofx/falling_in_love_btab.html ]
G:---------------------------------------------------------------
D:-000000000000---------------333333333333-----------------------
A:--------------1111111111111--------------333333333333----------
E:---------------------------------------------------------------


G:---------------------------------------------------------------
D:-111111111111---------------------------111111111111-----------
A:--------------111111111111-333333333333------------------------
E:---------------------------------------------------------------

Riff 2

G:---------------------------------------------------------------
D:-000000000000-111111111111-333333333333------------------------
A:----------------------------------------111111111111-----------
E:---------------------------------------------------------------


G:---------------------------------------------------------------
D:---------------000000000000-111111111111-333333333333----------
A:-111111-000000----------------------------------------3--------
E:---------------------------------------------------------------

Order you play it all in:

1. Intro
2. Riff 1 x3
3. Riff 2

That's it. Enjoy.

Comments