Nofx - Electricity Chords & Tabs

 

Electricity Chords & Tabs

Nofx Chords & Tabs

Version: 2 Type: Tab 0 ratings
1 star 2 stars 3 stars 4 stars 5 stars
comments

Electricity Tab

			     electricity - NOFX      Album:45or56 songs that 
                                                   werent good enough to go on
                                                    our other records...


Tabbed by: David Crews
Email:punksta1340 at hotmail

Tuning:regular
  /  slide up
  \  slide down

(please remember that u need to play this song kinda fast for it to sound right)

guitar#1(eric)   INTRO  
e|--------------------------------------------------------------------|
B|--------------------------------------------------------------------|
G|--------------------------------------------------------------------|
D|---5-------5-------5-------5----------------------------------------|
A|---------------------------------5\7-7-777-777-777-777-777-777-777--|
E|-------3-------3-------3---------3\5-5-555-555-555-555-555-555-555--|


after the intro guitar#1 and 2 play at the same time

guitar#2(El hefe)  (after intro play this 2x's)
e|--------------------------------------------------------------|
B|--------6-------------6--------------3-------------3----------|
G|----9-9---9-9---9-7-9---9-7-9----5-5---5-5---5-4-5---5-4-5----|
D|--7-----------7----------------3-----------3------------------|
A|--------------------------------------------------------------|
E|--------------------------------------------------------------|

e|--------------------------------------------------------------|
B|--------------------------------------5-------------5---------|
G|--------2-------------2-----------7-7---7-7---7-5-7---7-5-7---|
D|----5-5---5-5---5-3-5---5-3-5---5-----------5-----------------|
A|--3-----------3-----------------------------------------------|
E|--------------------------------------------------------------|

[ Tab from: http://www.guitartabs.cc/tabs/n/nofx/electricity_tab_ver_2.html ]
guitar#2(eric)  this is played at the same time as guitar2 (2x's)
e|-----------------------------------------------------------------------|
B|-----------------------------------------------------------------------|
G|-----------------------------------------------------------------------|
D|--------------------------------------55-555-555-555-------------------|
A|--77-777-777-777----33-333-333-333----33-333-333-333----55-555-555-555-|
E|--55-555-555-555----11-111-111-111----------------------33-333-333-333-|


   after that guitar1 and 2 play this riff at the same time
e|----------------------------------------------------------|
B|----------------------------------------------------------|
G|----------------------------------------------------------|
D|---------------------------55555555555--------------------|
A|--77777777777-3333333333\5-33333333333-55555555555--------|
E|--55555555555-1111111111\3-33333333333-33333333333--------|


e|----------------------------------------------------------|
B|----------------------------------------------------------|
G|----------------------------------------------------------|
D|--------------------------55555555555---------------------|
A|--77777777777-33333333333-33333333333-55555555555---------|
E|--55555555555-11111111111-------------33333333333---------|



   
e|-------------------------------------|
B|-------------------------------------|
G|-------------------------------------|
D|-------------------------------------|
A|--7--------------5-------------------|
E|--5--------------3-------------------|
    ^ 
play that strum that chord really fast about 32 times and same
with the other one    


Now after u play all dat u gotta play every thing again in the same 
order except dont play the intro, u'll figure it out...
.... then at the end it goes like this


  guitar#2(el hefe) play this repeatedly... listen to the song... 
u'll figure it out
e|---------------------------------|
B|---------6-------------6---------|
G|-----9-9---9-9---9-7-9---9-7-9---|
D|---7-----------7-----------------|
A|---------------------------------|
E|---------------------------------|

guitar#1(eric) play this repeatedly as well..... please know that these 
are played at the same time
e|----------------------|
B|----------------------|
G|----------------------|
D|----------------------|
A|----777-777-777-------|
E|----555-555-555-------|


       OK!!!    this is the whole song.... im sure that this is 100% correct... 
       my spelling probly isnt though...
             
if u got any questions my email address is   punksta1340 at hotmail.com 
 or my screenname is PunKRoX1340
  
              thanx for using my tab.....
Comments