Nofx - Electricity Chords & Tabs

 

Electricity Chords & Tabs

Nofx Chords & Tabs

Version: 1 Type: Tab 0 ratings
1 star 2 stars 3 stars 4 stars 5 stars
comments

Electricity Tab

NOFX
Electricity
distortednetwerk.vze.com

     Intro 1: Guitar 2
     pm= palm-muting
e|---------------------|
B|---------------------|
G|-10---10---9-9-9-----|
D|-12-5-12---7-7-7-----|
A|-12-5-12---7-7-7-----|
D|----5----------------|
   \x3/      \ x8/      
             | pm|


     Intro 2 x2: Guitar 2
e|---------------------------------------------------------------------->
B|---------------------------------------------------------------------->
G|-9-9-9-9-9-9--9--9-9--9-9-9--9-9-9-9-9--5-5--5-5-5--5-5-5--5-5-5-5-5-->
D|-9-9-9-9-9-9--9--9-9--9-9-9--9-9-9-9-9--5-5--5-5-5--5-5-5--5-5-5-5-5-->
A|-7-7-7-7-7-7--7--7-7--7-7-7--7-7-7-7-7--3-3--3-3-3--3-3-3--3-3-3-3-3-->
D|---------------------------------------------------------------------->
 | \ x8/                                                                >
 | | pm|              Guitar 1                                          >
e|---------------------------------------------------------------------->
B|-----------------------------------------------3---------------------->
G|-------9---9--9-10-9--9---9--9-7-9-7-9----5--5---5--5---5--5-4-5-4-5-->
D|---------7--------------7---------------3-------------3--------------->
A|---------------------------------------------------------------------->
D|---------------------------------------------------------------------->
[ Tab from: http://www.guitartabs.cc/tabs/n/nofx/electricity_tab.html ]
                 Guitar 2 
e|----------------------------------------------------------------------|
B|----------------------------------------------------------------------|
G|----------------------------7-7-7--7-7-7--7-7-7--7-7-7----------------|
D|--5-5--5-5-5--5-5-5--5-5-5--7-7-7--7-7-7--7-7-7--7-7-7----------------|
A|--5-5--5-5-5--5-5-5--5-5-5--5-5-5--5-5-5--5-5-5--5-5-5----------------|
D|--5-5--5-5-5--5-5-5--5-5-5--------------------------------------------|
 |                                                                      |
 |               Guitar 1                                               |
e|----------------------------------------------------------------------|
B|--------------------------------------5------------5------------------|
G|-----------------------------7---7--7---7--7---7-7---7----------------|
D|--3----5-6-5--5---5--5-6-5-----5-------------5------------------------|
A|----5-----------3-----------------------------------------------------|
D|----------------------------------------------------------------------|


     Verse: Both guitars
e|----------------------------------x2-|--------------------------------|
B|-------------------------------------|--------------------------------|
G|---9--------5-----------------7------|--------------------------------|
D|---9(x14)---5(x14)---5--------7(x12)-|--7-7-7--5-5-5------------------|
A|---7--------3--------5(x11)---5------|--7-7-7--5-5-5------------------|
D|---------------------5---------------|--7-7-7--5-5-5------------------|
                                          \ x8/  \ x8/  

Then play the intro x2 and the verse


     Outro 1 x2: Guitar 2
     ()=only first time
e|----------------------------------------------------------------------|
B|----------------------------------------------------------------------|
G|----------------------------------------------------------------------|
D|----------------------------------------------------------------------|
A|--7-7-7--7--7-7--7-7-7--7-7-7-7-7-7-7--7--7-7-(7-7-7--7--7-7)---------|
D|----------------------------------------------------------------------|
 |                                                                      |
e|----------------------------------------------------------------------|
B|----------------------------------------------------------------------|
G|----------------------------------------------------------------------|
D|--9---9--9-10-9--9---9--9-7-9-7-9---9--9-10-9--9---9--9-10-9----------|
A|----7--------------7--------------7------------- 7--------------------|
D|----------------------------------------------------------------------|


     Outro 2: Guitar 1
     Play several times
e|--------------------------------|
B|--------------------------------|
G|--------------------------------|
D|--9---9--9-10-9--9---9--9-10-9--|
A|----7--------------7------------|
D|--------------------------------||---|
Comments