Nofx - Dying Degree Chords & Tabs

 

Dying Degree Chords & Tabs

Nofx Chords & Tabs

Version: 1 Type: Tab 0 ratings
1 star 2 stars 3 stars 4 stars 5 stars
comments

Dying Degree Tab

DYING DEGREE by NOFX. Album : Punk in drublic (1994)
One of the best songs on this album.
A=left guitar   B=right guitar   A&B=both
:
# verse #A&B X3   X=one hell of a palm-mute
E--------------------------------------------------------|
B--------------------------------------------------------|
G----------------------------5-5-5-5---------------------|
D---5-5-5-5-5-5-7-7-7-5-XXXX-5-5-5-5-XXXX-4-4-4-4-XXXX---|
A---7-7-7-7-7-7-7-7-7-7-XXXX-3-3-3-3-XXXX-5-5-5-5-XXXX---|
E--------------------------------------------------------|
:
# pre-chorus #A&B   *=play 6X    \=slide down
E---------------------------------------|
B------------*-------*-------*----------|
G----*------7-------5-------5-----------|
D---5-------7-------5-------5-----------|
A---5-------5-------3-------3-----------|
E---3------------------------------15\--|
:
# chorus #A  *=play 12X                             >
E--------------------------------------------------->
B--------------------------------------------------->
G----*---------------------------------------------->
D---5-----------------------2-2-2-5-5-5-4-4-4-2-2-2->
A---5-----------------------2-2-2------------------->
E---3-----------------------0-0-0------------------->
# chorus #B  *=play 12X                             >
E--------------------------------------------------->
B--------------------------------------------------->
G----*-----------------------*---------------------->
D---5-----------------------2----------------------->
A---5-----------------------2----------------------->
E---3-----------------------0----------------------->
>chorusA
>---------------------------------------------------|
>----*----------------------------------------------|
>---5------------------------*----------------------|
>---5-----------------------4-----------------------|
>---3-----------------------------------------------|
>---------------------------------------------------|
>chorusB
>---------------------------------------------------|
>----*-----------------------*----------------------|
>---5-----------------------7-----------------------|
>---5-----------------------7-----------------------|
>---3-----------------------5-----------------------|
>---------------------------------------------------|
:
Then play chorusA&BX5, pre-chorusA&B and chorusA or chorusB.
:
# solo #B !GuitarA plays verseA&BX1.5!   b=bend-up to next note \=slide down
E--14---------------------------------------------|
B---------8\\\\\-----------------10b12-8--10b12---|
G---------9\\\\\------7---------------------------|
D------------------9----10------------------------|
A--------------------------10---------------------|
E-------------------------------------------------|
:
# bridge #A&B   *=play 12X   (No more eating crumps...)    # end-chord #A&B
E-------------------------------|                          E-------|
B----*---------------*-------*--|                          B-------|
G---5--------*------7-------5---|                          G-------|
D---5-------5-------7-------5---|  >>> Then play chorusA   D---2---|
A---3-------5-------5-------3---|      or chorusB.  >>>    A---2---|
E-----------3-------------------|                          E---0---|
Then struggle with string ends at the top of guitar.
Tabbed by Jussi Heinonen 02.07.1998.

[ Tab from: http://www.guitartabs.cc/tabs/n/nofx/dying_degree_tab.html ]
Comments