Nofx - Drugs Are Good Chords & Tabs

 

Drugs Are Good Chords & Tabs

Nofx Chords & Tabs

Version: 5 Type: Tab 0 ratings
1 star 2 stars 3 stars 4 stars 5 stars
comments

Drugs Are Good Tab

Nofx
____________________________________________________________               
drugs are good
____________________________________________________________

Intro:
gtr1
after the bass intro
e:-------------------------------------|
b:-------------------------------------|
g;-------------------------------------|
d:-------------------------------------|
a:-7777777777777777777777777777--------|
e:-5555555555555555555555555555--0-3-0-|
   pm*********************************
gtr 2
e:-------------------------------------|
B:-------------------------------------|
G:-------------------------------------|
D;-------------------------------------|
A:-------------------------------------|
E:-0-3-4-5---0-3-4-5---0-3-4-5---0-3-0-|
   pm*********************************

------------------------------------------------------------

riff
gtr 1
E:--------------------------------------------1-1-1-1-------
B:--------------------------------------------1-1-1-1-------
G:-2-2-2-2------------------------------------2-2-2-2-------
D;-2-2-2-2---5---2-2-2-2--------2-2-2-2---5---3-3-3-3-------
A;-0-0-0-0---5---3-3-3-3--------3-3-3-3---5---3-3-3-3-------
E:-----------3------------0-3-0-----------3---1-1-1-1--0-3-0
                          pm***                        pm***
gtr 2
E:----------------------------------------------------------
B:----------------------------------------------------------
G:-2-2-2-2--------------------------------------------------
D;-2-2-2-2---5---2-2-2-2--------9-9-9-9---7---5-5-5-5-------
A;-0-0-0-0---5---3-3-3-3--------7-7-7-7---5---3-3-3-3-------
E:-----------3------------0-3-0------------------------0-3-0
                          pm***                        pm***
end riff gtr 1y2
e:-----------|-----------|
b:-----------|-----------|
G:---4---4-4-|---pm*****--|
d:-5-5-5-5-5-|-5-5555555-|
a:-5-5-5-5-5-|-5-5555555-|
e:-3-3-3-3-3-|-3-3333333-|
  \end nro 1/ \end nro 2/

------------------------------------------------------------
[ Tab from: http://www.guitartabs.cc/tabs/n/nofx/drugs_are_good_tab_ver_5.html ]
verse
gtr 1
e:----------------------111111--------------------------|
B;----------------------111111--------------------------|
g:----------------------222222-2-2-2-2------------------|
d:-222222-222222-222222-333333-2-2-2-2-5--2-2-2-2-------|
a:-000000-333333-333333-333333-0-0-0-0-5--3-3-3-3-------|
e:----------------------111111---------3----------0-3-0-|
                                                  pm***

verse                                   
gtr 2
e:------------------------------------------------------|
B;------------------------------------------------------|
g:----------------------222222-2-2-2-2------------------|
d:-222222-333333-333333-333333-2-2-2-2-5--2-2-2-2-------|
a:-000000-555555-555555-333333-0-0-0-0-5--3-3-3-3-------|
e:----------------------111111---------3----------0-3-0-|
                                                  pm***
------------------------------------------------------------
chorus
gtr 1y2
E------------------------------------------------
B------------------------------------------------
G--------------------555--------------333--------
D---333-5-7777-------555-5-3333-------333-3-222--
A---333-5-7777-------333-5-3333-------111-3-333--
E---111-3-5555-----------3-1111-----------1-333--

E:--------------------------|
B:--------------------------|
G:-----333------------------|
D:-----333-3-22222222222222-|
A:-----333-3-22222222222222-|
E:---------1-33333333333333-|

------------------------------------------------------------

end of the song:
gtr 1y2
E:-------------------------------1~
B:-------------------------------1~
G:-2-2-2-2-----------------------2~
D;-2-2-2-2---5---2-2-2-2---------3~
A;-0-0-0-0---5---3-3-3-3---------3~
E:-----------3------------0-3-0--1~
                          pm***                        
------------------------------------------------------------
order

intro
riff
end nro 1
riff
end nro 2
verse
end nro 1
vrse
end nro 1
chorus
riff
end nro 1
riff
end nro 2
chorus
end of the song
------------------------------------------------------------

this is everithing
now take a brake and enjoy the show

tab made in roy

the punk it's the best

viva c-men toxico
Comments