Nofx - Drugs Are Good Chords & Tabs

 

Drugs Are Good Chords & Tabs

Nofx Chords & Tabs

Version: 3 Type: Tab 0 ratings
1 star 2 stars 3 stars 4 stars 5 stars
comments

Drugs Are Good Tab

   
Title: Drugs Are Good
Artist: NOFX
tabbed by paul (half_baked87@hotmail.com)

tuned down 1/2 step

INTRO (all of the others tabs are half assed this is the exact way)
before this play a open A string repeatedly, and guitar 2 goes

E|-0-3-4-5 x4 then palm muted 0-0-3-0

Guitar 1

G|-------------------------------
D|-222---22222-------222---------
A|-000-2-33333-22--2-333-5-33333-
E|-------------00h30-----3-11111-

Guitar 2 

G|----------------------999-7-55555-
D|-222---22222----------xxx-x-xxxxx-
A|-000-2-33333-22--2----777-5-33333-
E|-------------00h30----------------

BRIDGE (palm muted)

A|-555555555555-
E|-333333333333-
[ Tab from: http://www.guitartabs.cc/tabs/n/nofx/drugs_are_good_tab_ver_3.html ]
VERSE both guitars (one two fuck up drop out...)

G|--------------------------------------------------------------------
D|-22222222------------5-55-------------------222---55555-------------
A|-00000000-33333333---3-33----33333-22--2----000-2-33333-22--2-555555
E|----------11111111---3-33-3--11111-00h30----------------00h30-333333

CHORUS (drugs are good..)

G|----------------------------------------------------
D|-------------------5555---------------------55555555
A|-33333-5-777777777-3333-555-33333333-55-333-33333333
E|-11111-3-555555555------333-11111111-33-111---------

the verse is not 100% correct, but it doesnt sound bad. the intro and chorus are correct though.
Comments