Nofx - Drugs Are Good Chords & Tabs

 

Drugs Are Good Chords & Tabs

Nofx Chords & Tabs

Version: 2 Type: Tab 0 ratings
1 star 2 stars 3 stars 4 stars 5 stars
comments

Drugs Are Good Tab

e----------------------------------------------------
b----------------------------------------------------
g----------------------------------------------------
d-5-5-5--7-8-8-8-8-8-xxxx--12-12-12-10-8-8-8-8-8-xxxx  (x 1)then..
a-5-5-5--7-8-8-8-8-8-xxxx--12-12-12-10-8-8-8-8-8-xxxx
e-3-3-3--5-6-6-6-6-6-xxxx--10-10-10--8-6-6-6-6-6-xxxx


e-----------------------
b-----------------------
g-----------------------
d--5-5-5--7-8-8-8-8-8-3-3
a--5-5-5--7-8-8-8-8-8-3-3 (13 times)
e--3-3-3--5-6-6-6-6-6-1-1
                        PM 
[ Tab from: http://www.guitartabs.cc/tabs/n/nofx/drugs_are_good_tab_ver_2.html ]
Comments