Nofx - Drugs Are Good Chords & Tabs

 

Drugs Are Good Chords & Tabs

Nofx Chords & Tabs

Version: 1 Type: Tab 0 ratings
1 star 2 stars 3 stars 4 stars 5 stars
comments

Drugs Are Good Tab

   
                        DRUGS ARE GOOD
                             NOFX

Guitar - Rythm Fig. 1
------------------------------------------------------
------------------------------------------------------
------------------------------------------------------
------------------------------------------------------
------------------------------------------------------
--0-3-4-5----0-3-4-5----0-3-4-5----0-3-4-5-----0-3-0--

Bass - Rythm Fig. 1
----------------------------------------------------
----------------------------------------------------
----------------------------------------------------
-5-5-5-5-5-5-5-5-5-5-5-5-5-5-5-5-5-5-5-5-5-5-5-5-5-5

[ Tab from: http://www.guitartabs.cc/tabs/n/nofx/drugs_are_good_tab.html ]
Guitar - Rythm Fig. 2
-----------------------------------------------------------------------------------------------------
-----------------------------------------------------------------------------------------------------
-2---------4--5------------------5-5-5-5----10--1010---2---------4--5--------------------------------
-2---------4--5------------------5-5-5-5-5--10--1010---2---------4--5-----------5--------------------
-0--0-0-0--2--3--3-3-3-3---------3-3-3-3-5--8---8-8----0--0-0-0--2--3--3-3-3-3--5--------------------
--------------------------0-3-0----------3--------------------------------------3-3-3-3-3-3-3-3-3-3-3

Bass - Rythm Fig. 2
------------------------------------------------------------------------------------------
-----------------------------------------2---2-2------------------------------------------
-0--0-0-0--2--3--3-3-3-3-------3-3-3-3------------0-0-0--2-3--3-3-3-----------------------
-------------------------0-3-0---------0-----------------------------3-3-3-3-3-3-3........

Verse - Repeat Rythm Fig. 2

The chorus is to fucking energy spilling to write in tab.....;

Chorus
F  G  A   C G F  A# F C  A# F C



Song Structure:
Rythm Fig. 1 x2 (Clean)
Rythm Fig. 1 x2 (With Dist)
Chorus Riff (With Dist of course)
Rythm Fig. 2 x2 (Clean)
Rythm Fig. 2 x2 (Dist)
Chorus Riff (With Dist of course)
Rythm Fig. 1 x1 (Clean)



Notes: The first ending on rythm figure nr. 1 is a non-disted G major......(for dummies; 320033)
       And the second is disted........... They also put in some 










Comments