Nofx - Door Nails Chords & Tabs

 

Door Nails Chords & Tabs

Nofx Chords & Tabs

Version: 1 Type: Tab

Door Nails Tab

   
NOFX - Doornails

Nice acoustic song, leading nicely into 60% (reprise), easy too!
This is one to remember when you're around that campfire come
Summertime. I'm not gonna give you the strumming pattern as it 
would take longer for me to trnscribe it than for you to just 
figure it out, it shouldn't be too hard...

    Am  D   G   Em  Am  Cm  G   G7
E|--0---2---3---0---0---3---3---3--|
B|--1---3---3---0---1---4---3---3--|
G|--2---2---0---0---2---5---4---4--|
D|--2---0---0---2---2---5---5---3--|
A|--0-------2---2---0---3---5---5--|
E|----------3---0-----------3---3--|
  (These two shots are for Derrick...)
  
    Am  D   G   Em  Am  Cm  G   
E|--0---2---3---0---0---3---3------|
B|--1---3---3---0---1---4---3------|
G|--2---2---0---0---2---5---4------|
D|--2---0---0---2---2---5---5------|
A|--0-------2---2---0---3---5------|
E|----------3---0-----------3------|
  (You know suicide isn't painless...)
  
    Am  D   G   Em  Am  Cm  G   G7
E|--0---2---3---0---0---3---3---3--|
B|--1---3---3---0---1---4---3---3--|
G|--2---2---0---0---2---5---4---4--|
D|--2---0---0---2---2---5---5---3--|
A|--0-------2---2---0---3---5---5--|
E|----------3---0-----------3---3--|
  (This beating's for Jimmy...)



    Am  D   Bm  Em  Am  C   G   G
E|--0---2---2---0---0---0---3---3--|
B|--1---3---3---0---1---1---3---3--|
G|--2---2---4---0---2---0---4---4--|
D|--2---0---4---2---2---2---5---5--|
A|--0-------2---2---0---3---5---5--|
E|--------------0-----------3---3--|
  (Sedated, flatulated...)
[ Tab from: http://www.guitartabs.cc/tabs/n/nofx/door_nails_tab.html ]
CHORUS
    C   D   G   Em  C   D   G   Em
E|--0---2---3---0---0---2---3---0--|
B|--1---3---3---0---1---3---3---0--|
G|--0---2---0---0---0---2---0---0--|
D|--2---0---0---2---2---0---0---2--|
A|--3-------2---2---3-------2---2--|
E|----------3---0-----------3---0--|
  (Oh this petron's for Jason...)


    C   D   G   Em  Am  C   G   
E|--0---2---3---0---0---0---3------|
B|--1---3---3---0---1---1---3------|
G|--0---2---0---0---2---0---4------|
D|--2---0---0---2---2---2---5------|
A|--3-------2---2---0---3---5------|
E|----------3---0-----------3------|
  (This ritalin's for Lumpy...)

    Am  D   G   Em  Am  Cm  G   G7
E|--0---2---3---0---0---3---3---3--|
B|--1---3---3---0---1---4---3---3--|
G|--2---2---0---0---2---5---4---4--|
D|--2---0---0---2---2---5---5---3--|
A|--0-------2---2---0---3---5---5--|
E|----------3---0-----------3---3--|
  (This bowl is for my Mom...)

    Am  D   Bm  Em  Am  C   G   G
E|--0---2---2---0---0---0---3---3--|
B|--1---3---3---0---1---1---3---3--|
G|--2---2---4---0---2---0---4---4--|
D|--2---0---4---2---2---2---5---5--|
A|--0-------2---2---0---3---5---5--|
E|--------------0-----------3---3--|
  (And in Hollywood that first time...)

CHORUS
    C   D   G   Em  C   D   G   Em
E|--0---2---3---0---0---2---3---0--|
B|--1---3---3---0---1---3---3---0--|
G|--2---2---0---0---2---2---0---0--|
D|--2---0---0---2---2---0---0---2--|
A|--0-------2---2---0-------2---2--|
E|----------3---0-----------3---0--|
  (Oh this petron's for Jason...)
  
    C   D   Bm  Em  Am  Cm  Cm
E|--0---2---2---0---0---3---3----|
B|--1---3---3---0---1---4---4----|
G|--2---2---4---0---2---5---5----|
D|--2---0---4---2---2---5---5----|
A|--0-------2---2---0---3---3----|
E|--------------0----------------|
  (This song is for winning losers...)

Only play that last Cm once, and let it ring.

Enjoy!