Nofx - Dont Call Me White Chords & Tabs

 

Dont Call Me White Chords & Tabs

Nofx Chords & Tabs

Version: 1 Type: Tab 0 ratings
1 star 2 stars 3 stars 4 stars 5 stars
comments

Dont Call Me White Tab

   
Artist:NoFx
Song:Dont Call me White
Album:Punk in Drublic
Tabbed by:Joe L
E-mail:anti_government@hotmail.com
Tunning:standard e b g d a e

intro

|----------------------|
|----------------------|
|--------2:------------|
|-4:-----2:----2:------|
|-4:-----0:----2:------|
|-2:-----------0:------|

post intro

|------------------|
|------------------|
|-----------2-2----|
|-2-2-2---2-2-2-2--|
|-2-2-2---2-0-0-2--|
|-0-0-0---0-----0--|

verse

|----------------------------------------------------------
|----------------------------------------------------------
|-----------------2-2-2-2-2-2-2-2--------------------2-2---
|-4-4-4-4-4-4-4-4-2-2-2-2-2-2-2-2-2-2-2-2-2-2-2-2--2-2-2-2-
|-4-4-4-4-4-4-4-4-0-0-0-0-0-0-0-0-2-2-2-2-2-2-2-2--2-0-0-2-
|-2-2-2-2-2-2-2-2-----------------0-0-0-0-0-0-0-0--0-----0-

 ----------------------------------------------------------
 ----------------------------------------------------------
 -----------------2-2-2-2-2-2-2-2--------------------2-2---
 -4-4-4-4-4-4-4-4-2-2-2-2-2-2-2-2-2-2-2-2-2-2-2-2--2-2-2-2-
 -4-4-4-4-4-4-4-4-0-0-0-0-0-0-0-0-2-2-2-2-2-2-2-2--2-0-0-2-
 -2-2-2-2-2-2-2-2-----------------0-0-0-0-0-0-0-0--0-----0-
 
 -----------------------------------------------------------------
 -----------------------------------------------------------------
 -----------------2-2-2-2-2-2-2-2---------------------------------
 -4-4-4-4-4-4-4-4-2-2-2-2-2-2-2-2-4-4-4-4-4-4-4-4-2-2-2-2-2-2-2-2-
 -4-4-4-4-4-4-4-4-0-0-0-0-0-0-0-0-4-4-4-4-4-4-4-4-2-2-2-2-2-2-2-2-
 -2-2-2-2-2-2-2-2-----------------2-2-2-2-2-2-2-2-0-0-0-0-0-0-0-0-
 
 -----------------------------------------|
 -----------------------------------------|
 -2-2-2-2-2-2-2-2-2-2-2-2-2-2-2-2-2-2-2-2-|
 -2-2-2-2-2-2-2-2-2-2-2-2-2-2-2-2-2-2-2-2-|
 -0-0-0-0-0-0-0-0-0-0-0-0-0-0-0-0-0-0-0-0-|
 -----------------------------------------|

chorus

|-------------------------------------------------|
|-------------------------------------------------|
|-------------2-2-2-2-2-2-------------------------|
|-4-4-4-4-4-4-2-2-2-2-2-2-2-2-2-2-2-2-2-2-2-2-2-2-|
|-4-4-4-4-4-4-0-0-0-0-0-0-2-2-2-2-2-2-2-2-2-2-2-2-|
|-2-2-2-2-2-2-------------0-0-0-0-0-0-0-0-0-0-0-0-|  

verse 2
[ Tab from: http://www.guitartabs.cc/tabs/n/nofx/dont_call_me_white_tab.html ]
|-------------------------------------------------------------------------|
|-------------------------------------------------------------------------|
|-6-6-6-6-6-6-6-6-x-x-6-x-x-6-x-x-6-x-x-6-2-2-2-2-2-2-2-2-----------------|
|-6-6-6-6-6-6-6-6-x-x-6-x-x-6-x-x-6-x-x-6-2-2-2-2-2-2-2-2-2-2-2-2-2-2-2-2-|
|-4-4-4-4-4-4-4-4-x-x-4-x-x-4-x-x-4-x-x-4-0-0-0-0-0-0-0-0-2-2-2-2-2-2-2-2-|
|---------------------------------------------------------0-0-0-0-0-0-0-0-|

verse 3 - play the first part twice

|-------------------------------------------------|
|-------------------------------------------------|
|-9-9-9-9-9-9-9-9-7-7-7-7-7-7-7-7-2-2-2-2-2-2-2-2-|
|-9-9-9-9-9-9-9-9-7-7-7-7-7-7-7-7-2-2-2-2-2-2-2-2-|
|-7-7-7-7-7-7-7-7-5-5-5-5-5-5-5-5-0-0-0-0-0-0-0-0-|
|-------------------------------------------------|

then...

|-----------------------------------------------------------------
|-----------------------------------------------------------------
|-----------------2-2-2-2-2-2-2-2---------------------------------
|-4-4-4-4-4-4-4-4-2-2-2-2-2-2-2-2-4-4-4-4-4-4-4-4-2-2-2-2-2-2-2-2-
|-4-4-4-4-4-4-4-4-0-0-0-0-0-0-0-0-4-4-4-4-4-4-4-4-2-2-2-2-2-2-2-2-
|-2-2-2-2-2-2-2-2-----------------2-2-2-2-2-2-2-2-0-0-0-0-0-0-0-0-

 -----------------------------------------|
 -----------------------------------------|
 -2-2-2-2-2-2-2-2-2-2-2-2-2-2-2-2-2-2-2-2-|
 -2-2-2-2-2-2-2-2-2-2-2-2-2-2-2-2-2-2-2-2-|
 -0-0-0-0-0-0-0-0-0-0-0-0-0-0-0-0-0-0-0-0-|
 -----------------------------------------|

Song lyrics:

don't call me white, don't call me white
don't call me white, don't call me white
the connotations wearing my nerves thin
could it be semantics generating the mess we're in?
i understand that language breeds stereotype
but what's the explanation for the malice, for the spite?
don't call me white, don't call me white
don't call me white, don't call me white
i wasn't brought here, i was born,
circumsized, categorized, alligiance sworn
does this mean i have to take such shit for being fair skinned? no!
i ain't part of no conspiracy, i'm just your average joe
don't call me white, don't call me white
don't call me white, don't call me white
represents everything i hate, 
the soap shoved in the mouth to cleanse the mind
the vast majority of sheep, a buttoned collar, starched and bleached
constricting veins, the blood flow to the brain slows
they're so fucking ordinary white
don't call me white, don't call me white
don't call me white, don't call me white
oh, we're better off this way, oh, say what you're gonna say
so go ahead and label me an asshole 'cause i can, 
accept responsibility for what i've done, but not for who i am
don't call me white, don't call me white
don't call me white, don't call me white

Comments