Nofx - Dont Call Me White Chords & Tabs

 

Dont Call Me White Chords & Tabs

Nofx Chords & Tabs

Version: 3 Type: Bass Tab 0 ratings
1 star 2 stars 3 stars 4 stars 5 stars
comments

Dont Call Me White Bass Tab

   
NOFX - don't call me white

intro.                     end 1.       end 2.
G|---------------------||-----------||-----------------------------------------------------------------|
D|---------------------||-----------||-----------------------------------------------------------------|
A|---------------------||-----------||---------------------------------7-7---------------------------7~|
E|-2----------5--------||-0---------||-0-0-0-0-0-0-0-0-0-0-0-0-0-0-0-0-0-------------------------------|

verse.
G|-------------------------------|   |--------------------------------||-------------------------------|
D|-------------------------------|   |--------------------------------||-------------------------------|
A|-------------------------------|   |--------------------------------||-------------------------------|
E|2-2-2-2-5-5-5-5-0-0-0-0-0-0-0-0|2x |2-2-2-2-5-5-5-5-2-2-2-2-0X0X0X0X||5-5-5-5-5-5-5-5-5-5-5-5-5-5-5-5|
[ Tab from: http://www.guitartabs.cc/tabs/n/nofx/dont_call_me_white_btab_ver_3.html ]
chorus 1.
G|---------------------------------|
D|---------------------------------|
A|---------------------------------|
E|-2-2-2-2-5-5-5-5-0-0-0-0-0-0-0-0-|2x

verse

chorus 2.
G|---------------------------------||-----------------|
D|---------------------------------||-----------------|
A|---------------------------------||-----------------|
E|-2-2-2-2-5-5-5-5-0-0-0-0-0-0-0-0-||-2-2-2-2-5-5-5-5-|

bridge.
G|-----------------------------------------------------------------|
D|-----------------------------------------------------------------|
A|-4-4-4-4-4-4-4-4-2-2-2-2-2-2-2-2---------------------------------|
E|---------------------------------5-5-5-5-5-5-5-5-0-0-0-0-0-0-0-0-|2x

G|--------------------------------------------------------------|
D|--------------------------------------------------------------|
A|--------------------------------------------------------------|
E|-2-2-2-2-5-5-5-5-0-0-0-0-0-0-0-0-hold this on for a long time-|

G|---------------------------------|
D|---------------------------------|
A|-7-7-7-7-5-5-5-5-----------------|
E|-----------------5-5-5-5-5-5-5-5-|2x

tabbed by nazz_desperation
the tab written by "fat rob" wasn't quite right, so here's one more like it.
i'm only not 100% sure about the intro.
Comments