Nofx - Dinosaurs Will Die Chords & Tabs

 

Dinosaurs Will Die Chords & Tabs

Nofx Chords & Tabs

Version: 5 Type: Tab 0 ratings
1 star 2 stars 3 stars 4 stars 5 stars
comments

Dinosaurs Will Die Tab

____________________________________________
<                                            >
<  Band:NOFX                                 >
<  Song:Dinosaurs Will Die                   >
<  Album:Greatest Songs Ever Written (by us) >
<____________________________________________>

This is one of my favourite song from NOFX. enjoy!!!

h - hammer on 
p - pull off 
b - bend string up
r - release bend
/ - slide up
\ - slide down
v - vibrato (sometimes written as ~)
t - tap (with strumming hand)
x - muted, struck string

////////// INTRO //////////

e|-----------------|
B|-----------------|
G|--9--8--7--6--5--|
D|--9--8--7--6--5--|
A|--7--6--5--4--3--|
E|-----------------|

////////// VERSE //////////
[Play in palm-muted]
e|-X12-|-X12-|-X12-|-------|
B|-----|-----|-----|-------|
G|-----|-----|--7--|--9-9--|
D|--2--|--5--|--7--|--9-9--|
A|--2--|--5--|--5--|--7-7--|________________________________________
E|--0--|--3--|-----|-------|----------------------------------------|
                   |Don't play it whe there are the short solo after|
////////// END-VERSE //////////

e|-------------------------------------|
B|-------------------------------------|
G|--9----------------------------------|
D|--9----------5----------------5------|
A|--7----7-5-7---7-5-7----7-5-7---7-5--|
E|-------------------------------------|

////////// CHORUS 1 //////////

e|-X8--|--X8--|-X8--|---------------------------------------------|
B|-----|------|-----|---------------------------------------------|
G|--9--|--12--|--7--|--9---------------------9----9-8-7-----------|
D|--9--|--12--|--7--|--9----------5---------------------9-8-7-----|
A|--7--|--10--|--5--|--7----7-5-7---7-5-7---------------------10--|
E|-----|------|-----|---------------------------------------------|

e|-X8--|--X8--|-X8--|-X8--|-X8--|-X8--|-X7--|-----|-X8--|-X8--|--X8-|
B|-----|------|-----|-----|-----|-----|-----|-----|-----|-----|-----|
G|--9--|--12--|--7--|--5--|-----|-----|--9--|--7--|--5--|-----|-----|
D|--9--|--12--|--7--|--5--|--2--|--7--|--9--|--7--|--5--|--2--|--7--|
A|--7--|--10--|--5--|--3--|--2--|--7--|--7--|--5--|--3--|--2--|--7--|
E|-----|------|-----|-----|--0--|--5--|-----|-----|-----|--0--|--5--|

////////// CHORUS 2 //////////

e|-X8--|--X8--|-X8--|---------------------------------------------|
B|-----|------|-----|---------------------------------------------|
G|--9--|--12--|--7--|--9---------------------9----9-8-7-----------|
D|--9--|--12--|--7--|--9----------5---------------------9-8-7-----|
A|--7--|--10--|--5--|--7----7-5-7---7-5-7---------------------10--|
E|-----|------|-----|---------------------------------------------|
[ Tab from: http://www.guitartabs.cc/tabs/n/nofx/dinosaurs_will_die_tab_ver_5.html ]
e|-X8--|-X8--|-X8--|-X8--|-X8--|-X8--|-X7--|-----|-X8--|-X8--|--X8-|-----|
B|-----|-----|-----|-----|-----|-----|-----|-----|-----|-----|-----|-----|
G|--9--|--5--|-----|--7--|-----|-----|--9--|--7--|--5--|-----|-----|-----|
D|--9--|--5--|--5--|--7--|--2--|--7--|--9--|--7--|--5--|--2--|--7--|--9--|
A|--7--|--3--|--5--|--5--|--2--|--7--|--7--|--5--|--3--|--2--|--7--|--9--|
E|-----|-----|--3--|-----|--0--|--5--|-----|-----|-----|--0--|--5--|--7--|

////////// SOLO //////////

e|----------------X2-----------------|-[]---------|-------------------------|
B|-----------------------------------|--7---7------|-------------------------|
G|-----------------------------------|--------9-9--|--9-9-9-4-----4-4-4-5-4--|
D|-----------------------------------|-------------|----------2-2------------|
A|--9-9-7-7-9-7-9-7-9-7-9-9-7-7-9-7--|-----X2------|-------------------------|
E|-----------------------------------|-------------|-------------------------|

e|-----------------|-----------------------------------------------------------|
B|-----------------|-----------b--------b--------b-----------b-----------b-----|
G|--2-0---0---5-4--|----16-14-14-14-16-14-14-14-14-14-14-14-14-14-14-14-14-14--|
D|-----------------|-----------|--------|--------|-----------|-----------|-----|
A|-----------------|-----------|--------|--------|-----------|-----------|-----|
E|-----------------|---------[full]---[full]---[full]------[full]------[full]--|

e|---------------------------------|
B|--15---15---15---15--------------|
G|---|----|----|----|---16--12--9--|
D|---|----|----|----|--------------|
A|---|----|----|----|--------------|
E|[full-full-full-full]------------|

////////// BRIDGE //////////

e|-----------------|
B|-----------------|
G|--9--8-----------|
D|--9--8--7--7--6--|
A|--7--6--7--7--7--|
E|--------5--5--5--|

////////// CHORUS 3 //////////

e|-X8--|--X8--|-X8--|------------------------------------|
B|-----|------|-----|------------------------------------|
G|--9--|--12--|--7--|--9---------------------------------|
D|--9--|--12--|--7--|--9----------5----------------------|
A|--7--|--10--|--5--|--7----7-5-7---7-5-7---7-5-7---7-5--|
E|-----|------|-----|------------------------------------|

e|-X8--|--X8--|-X8--|-X8--|-X16-|-----------------------------------|
B|-----|------|-----|-----|-----|-----------------------------------|
G|--9--|--12--|--7--|--9--|--5--|--5-7---5-7---5-7---5-7---5-7---5--|
D|--9--|--12--|--7--|--9--|--5--|--5-5-5-5-5-5-5-5-5-5-5-5-5-5-5-5--|
A|--7--|--10--|--5--|--7--|--3--|-----------------------------------|
E|-----|------|-----|-----|-----|-----------------------------------|
                    |---------------Play this 2 times---------------|

////////// OUTRO //////////

e|-X8--|-X16-|-----|----------|
B|-----|-----|-----|----------|
G|--9--|--5--|--7--|----------|
D|--9--|--5--|--5--|-----5-5--|
A|--7--|--3--|--5--|-----5-5--|
E|-----|-----|-----|-----3-3--|

SONG ORDER:
INTRO      X3   (0:03)
VERSE      X1   (0:09)
INTRO      X1   (0:15)
VERSE      X1   (0:17)
END-VERSE  X1   (0:23)
CHORUS 1   X1   (0:25)
END-VERSE  X1   (0:52)
VERSE      X1   (0:54)
INTRO      X1   (1:00)
VERSE      X1   (1:02)
END-VERSE  X1   (1:08)
CHORUS 2   X1   (1:10)
SOLO       X1   (1:38)
VERSE      X1   (1:54)
BRIDGE     X1   (2:00)
VERSE      X1   (2:02)
PRE-VERSE  X1   (2:08)
CHORUS 3   X1   (2:10)
OUTRO      X1   (2:39)
Comments