Nofx - Dads Bad News Chords & Tabs

 

Dads Bad News Chords & Tabs

Nofx Chords & Tabs

Version: 1 Type: Tab 0 ratings
1 star 2 stars 3 stars 4 stars 5 stars
comments

Dads Bad News Tab

   
DAD'S BAD NEWS by NOFX. Album : So long and thanks for all the shoes (1997)
Wow! Rock'n'roll!
A=Melvin   B=El Hefe   A&B=both
:
# intro #A X2  *=play 7X
E-------------------------------------------|
B--------------------------------*----------|
G----*---------*---------*------8-----------|
D---6---------2---------4-------8---9-9-8---|
A---6---------2---------4-------6---9-9-8---|
E---4---------0---------2-----------7-7-6---|
# intro #B X2
E-------------------------------------------|
B-------------------------------------------|
G---5-5-5-6-5-------------------------------|
D-------------8-6-6-6-6-6-6-4-4-5-5-5-6-8---|
A-------------------------------------------|
E-------------------------------------------|
:
# verse #A&B X2 *=play 8X palm-muted   /x\=palm-muted  # into-verse #A&B
E---------------------------/-\---/-\-----|            E-------|
B--------------------*--------------------|            B-------|
G----*-------*------6---------------------|            G-------| play 9X
D---6-------2-------6-----------2-----4---|            D---6---|
A---6-------2-------4-------2-2-2-4-4-4---|            A---6---|
E---4-------0---------------0-0-0-2-2-2---|            E---4---|
:
# chorus #A&B   *=play 8X   #=play 4X
E------------------------------|
B----*-------*-----------------|
G---4-------6--------#---------|  > Then play A&BverseA&BX1.
D---4-------6-------2---4446---|
A---2-------4-------2---4446---|
E-------------------0---2224---|
:
# verse2 #B   !A plays verseA&B!
E---------------------------|
B---------------------------|  > Then play A&Binto-verseA&B and A&BverseA&B.
G---5-5-5-6-5---------------|
D-------------8-6-------6---|
A---------------------------|
E---------------------------|
:
# bridge #A !play all notes X7!     (No simple way...)
E-----------------------------------|
B-----------------------------------|
G-----------6---9---------------9---|
D---6---4---6---9---9-------6---9---|
A---6---4---4---7---9---4---6---7---|
E---4---2-----------7---6---4-------|
# bridge #B !play all notes X7!
E-----------------------------------|
B-----------------------------------|
G-----------6---9-------------------|
D---6---4---6---9---9-------6---2---|
A---6---4---4---7---9---4---6---2---|
E---4---2-----------7---6---4---0---|
:
Then play A&BverseA&BX1, AverseA&B Bverse2B, A&Binto-verseA&B and
A&BchorusA&B.
Tabbed by Jussi Heinonen 25.09.1998.

[ Tab from: http://www.guitartabs.cc/tabs/n/nofx/dads_bad_news_tab.html ]
Comments