Nofx - Champs Elysees Chords & Tabs

 

Champs Elysees Chords & Tabs

Nofx Chords & Tabs

Version: 1 Type: Bass Tab 0 ratings
1 star 2 stars 3 stars 4 stars 5 stars
comments

Champs Elysees Bass Tab

Song: Champs Elysées
Band: NOFX
Album: So Long And Thanks For All The Shoes
tabbed by: Paul "The Skate Pimp" Drexhage (drexhage@hey.net)


Intro

G:---------------------------------------------------------------
D:---------5555555-------3333333--------5555555-------3333333----
A:--3333333-------3333333--------3333333-------3333333-----------
E:---------------------------------------------------------------

Verse (play twice) 

G:---------------------------------------------------------------
D:-----55---------33----00-55----55---------33----00-55----------
A:--33----3333333----33-------33----3333333----33------------3---
E:-------------------------------------------------------1-3-----

Pre-Chorus 
and
Chorus 
(same as above)

[ Tab from: http://www.guitartabs.cc/tabs/n/nofx/champs_elysees_btab.html ]
Closing (This segment starts after last chorus, where the lyrics for
"Champs Elyees" are long and drawn out, then go into a fast chorus)

G:---------------------------------------------------------------
D:-----------------------5555----------3333------0000-5555-------
A:-----------------3333-------33333333------3333-----------------
E:--1-1111--3-3333-----------------------------------------------

G:---------------------------------------------------------------
D:-------5555----------3333------0000-5555-----------------------
A:--3333-------33333333------3333-----------------3--------------
E:-------------------------------------------1-3-----------------


This is enough to get you started as long as you actually own the album.
The chorus riff fits correctly when played with the song, but some of the
smaller parts in-between the chorus and verse you might want to improvise.
As you can see, the riff is basically the same throughout the whole song,
so use that as a starting point.



Comments