Nofx - Buggley Eyes Chords & Tabs

 

Buggley Eyes Chords & Tabs

Nofx Chords & Tabs

Version: 1 Type: Bass Tab 0 ratings
1 star 2 stars 3 stars 4 stars 5 stars
comments

Buggley Eyes Bass Tab

------------------------------------------------------------------------
BUGGLY EYES - Nofx
------------------------------------------------------------------------

mike t 
> Means Strum
[ Tab from: http://www.guitartabs.cc/tabs/n/nofx/buggley_eyes_btab.html ]
Verse
G]--------|--------]
D]----2---|-------*]
A]3-2-----|5---3-3*]
E]------5-|--3--3--]

Chorus
G]-------------|------------]
D]-------------|7>---75-----]
A]3-333slide7--|-------75-3-]
E]-----------0-|------------]
Comments