Nofx - Bottles To The Ground Chords & Tabs

 

Bottles To The Ground Chords & Tabs

Nofx Chords & Tabs

Version: 1 Type: Tab 0 ratings
1 star 2 stars 3 stars 4 stars 5 stars
comments

Bottles To The Ground Tab

band-nofx
song-bottles to the ground





intro


[]----------------------------------------------------------------------------------------------------------------------------------
[]------0-0-----0-0-----0-0-----0-0-----1-1-----1-1-----1-1----1-1-----5-5-----5-5-----5-5-----5-5-----1-1-----1-1-----0-0-----0-0--
[]------0-0-----0-0-----0-0-----0-0-----0-0-----0-0-----0-0----0-0-----0-0-----0-0-----0-0-----0-0-----0-0-----0-0-----0-0-----0-0--
[]-2-2------2-2-----2-2-----2-2-----0-0-----0-0------0-0----0-0----3-3------3-3-----3-3-----3-3----0-0------0-0-----2-2-----2-2-----
[]----------------------------------------------------------------------------------------------------------------------------------
[]----------------------------------------------------------------------------------------------------------------------------------
pm----|    ----|   ----|   ----|   ----|    ----|    ----|  ----|  ----|   ----|   -----|  ----|   ----|    ----|  ----|   -----|





verse




    
[ Tab from: http://www.guitartabs.cc/tabs/n/nofx/bottles_to_the_ground_tab.html ]
[]----------------------------------------------------------------------------------------------------------------------------------
[]------0-0-----0-0-----0-0-----0-0-----1-1-----1-1-----1-1----1-1-----5-5-----5-5-----5-5-----5-5-----1-1-----1-1-----0-0-----0-0--
[]------0-0-----0-0-----0-0-----0-0-----0-0-----0-0-----0-0----0-0-----0-0-----0-0-----0-0-----0-0-----0-0-----0-0-----0-0-----0-0--
[]-2-2------2-2-----2-2-----2-2-----0-0-----0-0------0-0----0-0----3-3------3-3-----3-3-----3-3----0-0------0-0-----2-2-----2-2-----
[]----------------------------------------------------------------------------------------------------------------------------------
[]----------------------------------------------------------------------------------------------------------------------------------
pm----|    ----|   ----|   ----|   ----|    ----|    ----|  ----|  ----|   ----|   -----|  ----|   ----|    ----|  ----|   -----|




chorus


[]----------------------------------------------------------------------------
[]----------------------------------------------------------------------------
[]-5-5-5-5-5-5-5-5-5-5-5-5-5-5-5-5------7-7-7-7-7-7-7-7-7-7-7-7-7-7-7-7-------
[]-5-5-5-5-5-5-5-5-5-5-5-5-5-5-5-5------7-7-7-7-7-7-7-7-7-7-7-7-7-7-7-7-------
[]-3-3-3-3-3-3-3-3-3-3-3-3-3-3-3-3------5-5-5-5-5-5-5-5-5-5-5-5-5-5-5-5-------
[]-----------------------------------3------------------------------------5---
                                 pm----|                                 ---|


solo

[]------------------------------------------------------------------
[]------------------------------------------------------------------
[]------------------------------------------------------------------
[]-5-5-5-5-5-5-5-5-5---7-7-7-7-7-7-7-7----3-3-3-3-3-3-3-3-----------
[]-3-3-3-3-3-3-3-3-3---5-5-5-5-5-5-5-5----1-1-1-1-1-1-1-1-----------
[]------------------------------------------------------------------
pm---------------------------------------------------------|



ending

[]---------------------------------------------------------------------
[]---------------------------------------------------------------------
[]-5-5-5-5-5-5-5-5-5-5-5-5-5-5-5-5-5-5---7-7-7-7-7-7-7-7-7-7-7-7-7-7---
[]-5-5-5-5-5-5-5-5-5-5-5-5-5-5-5-5-5-5---7-7-7-7-7-7-7-7-7-7-7-7-7-7---
[]-3-3-3-3-3-3-3-3-3-3-3-3-3-3-3-3-3-3---5-5-5-5-5-5-5-5-5-5-5-5-5-5---


very end played like this

[]--------------------------------------------
[]--------------------------------------------
[]----5-------7-------5---------3-------------
[]----5-------7-------5---------3-------------
[]----3-------5-------3---------1-------------
[]--------------------------------------------                                                              
Comments