Nofx - Bob Turkee Chords & Tabs

 

Bob Turkee Chords & Tabs

Nofx Chords & Tabs

Version: 1 Type: Tab 0 ratings
1 star 2 stars 3 stars 4 stars 5 stars
comments

Bob Turkee Tab

   
BOB TURKEE by NOFX. Album: Maximum Rocknroll (1988)
Great song with great riffs!
A=left Melvin   B=right Melvin   A&B=both Melvins
:
# intro #A&B     %=pause
E----------------------------------------------------------|
B----------------------------------------------------------|
G---9--------------------------9----------------12-12-12---|
D---9-----------7--------------9-----------7--7-12-12-12---|
A---7-%%%%%%%%%-7-%%%%%%%%%%%%-7-%%%%%%%%%-7--7-10-10-10---|
E---------------5--------------------------5--5------------|
:
# intro #A&B
E----------------------------------------------------------|
B----------------------------------------------------------|
G---9-9-9-5-----------12-11-12-9-9-9-5----------12-12-12---|
D---9-9-9-5-5-5-7-7-7-12-11-12-9-9-9-5-5-5-7--7-12-12-12---|
A---7-7-7-3-5-5-7-7-7-10--9-10-7-7-7-3-5-5-7--7-10-10-10---|
E-----------3-3-5-5-5------------------3-3-5--5------------|
:                                                                    
# verse #A&B X4                      # chorus #A&B X4 (last time last note X6)
E--------------------------------|   E----------------------|
B--------------------------------|   B----------------------|
G---9-9-9-5-----------12-11-12---|   G---9-9-9-10-10-10-9---|
D---9-9-9-5-5-5-7-7-7-12-11-12---|   D---9-9-9-10-10-10-9---|
A---7-7-7-3-5-5-7-7-7-10--9-10---|   A---7-7-7--8--8--8-7---|
E-----------3-3-5-5-5------------|   E----------------------|
:
Then play introA&B, verse A&B and chorus A&B.
:
# bridge #A        !some notes not played first time!
E---------------------------------------------|
B---------------------------------------------|
G---9-----11-12--11--9--7---------9--12--11---|
D---------------------------------------------|
A---------------------------------------------|
E---------------------------------------------|
# bridge #B        *=play 6X
E---------------------------------------------|
B--------------*------------------------------|
G----*--------5----------*---------*----------|
D---2---------5---------5---------7-----------|
A---2---------3---------5---------7-----------|
E---0-------------------3---------5-----------|
:                                           D-2-|
Then play intro A&B and verse A&B (end with A-2-|)
:                                           E-0-|
# bridge2 # X4
E-----------------------|
B-----------------------|
G-----------------------|
D---2-2-2-2-2-2-5-5-2---|     > Then play introA&B.
A---2-2-2-2-2-2-5-5-2---|
E---0-0-0-0-0-0-3-3-0---|
:
# outro #A&B
E----------------------------------------------------------------------------|
B----------------------------------------------------------------------------|
G---9-9-9-5-----------12-11-12-9-9-9-5----------12-------------------12-11-9-|
D---9-9-9-5-5-5-7-7-7-12-11-12-9-9-9-5-5-5-7--7-12-----2-------------12-11-9-|
A---7-7-7-3-5-5-7-7-7-10--9-10-7-7-7-3-5-5-7--7-10-----2-------------10--9-7-|
E-----------3-3-5-5-5------------------3-3-5--5--------0---------------------|
:
Tabbed by Jussi Heinonen 06.05.1998.          Thanks to Juha Kellokoski.

[ Tab from: http://www.guitartabs.cc/tabs/n/nofx/bob_turkee_tab.html ]
Comments