Nofx - Beer Bong Chords & Tabs

 

Beer Bong Chords & Tabs

Nofx Chords & Tabs

Version: 3 Type: Tab 0 ratings
1 star 2 stars 3 stars 4 stars 5 stars
comments

Beer Bong Tab

Group: NOFX
Album: Liberal Animation
Released: 1991 epitaph records
Track: 9
Title: beer bong

: - let ring
pm - palm mute (play with pm until the line above stops, then release pm)


intro

|---------------------------|
|---------------------------|
|-5-5-5:----7-7-7:----1:----|
|-5-5-5:----7-7-7:----2:----|
|-3-3-3:----5-5-5:----2:----|
|---------------------------|

pre verse

pm______________________________________________________________|
|---------------------------------------------------------------|
|---------------------------------------------------------------|
|-1-1-1-1-1--1--1--1-1-1-1--1--1--1-1-1-1--1--1--1-1-1-1--1--1--|
|-2-2-2-2-2--2--2--2-2-2-2--2--2--2-2-2-2--2--2--2-2-2-2--2--2--|
|-2-2-2-2-2--2--2--2-2-2-2--2--2--2-2-2-2--2--2--2-2-2-2--2--2--|
|---------------------------------------------------------------|

verse
[ Tab from: http://www.guitartabs.cc/tabs/n/nofx/beer_bong_tab_ver_3.html ]
pm_________|   |_________|   |_________|   |_________|
|---------------------------------------------------------|
|---------------------------------------------------------|
|-1-1-1-1-1--9--1-1-1-1-1--9--1-1-1-1-1--9--1-1-1-1-1--9--|
|-2-2-2-2-2--9--2-2-2-2-2--9--2-2-2-2-2--9--2-2-2-2-2--9--|
|-2-2-2-2-2--7--2-2-2-2-2--7--2-2-2-2-2--7--2-2-2-2-2--7--|
|---------------------------------------------------------|

chorus

|---------------------------------------------------------------------|
|---------------------------------------------------------------------|
|-12-12-12-9--9-9--12-12-12-9--9-9--12-12-12-9--9-9--12-12-12-9--9-9--|
|-12-12-12-9--9-9--12-12-12-9--9-9--12-12-12-9--9-9--12-12-12-9--9-9--|
|-10-10-10-7--7-7--10-10-10-7--7-7--10-10-10-7--7-7--10-10-10-7--7-7--|
|---------------------------------------------------------------------|

bridge
|--------------------------------------------------------|
|--------------------------------------------------------|
|-4-4-4-7-7-7-11-11-11-4-4-4--4-4-4-7-7-7-11-11-11-4-4-4-|
|-4-4-4-7-7-7-11-11-11-4-4-4--4-4-4-7-7-7-11-11-11-4-4-4-|
|-2-2-2-5-5-5--9--9--9-2-2-2--2-2-2-5-5-5--9--9--9-2-2-2-|
|--------------------------------------------------------|

 --------------------------------------------------------|
 --------------------------------------------------------|
 -4-4-4-7-7-7-11-11-11-4-4-4--4-4-4-7-7-7-11-11-11-4-4-4-|
 -4-4-4-7-7-7-11-11-11-4-4-4--4-4-4-7-7-7-11-11-11-4-4-4-|
 -2-2-2-5-5-5--9--9--9-2-2-2--2-2-2-5-5-5--9--9--9-2-2-2-|
 --------------------------------------------------------|
Comments