Nofx - Beer Bong Chords & Tabs

 

Beer Bong Chords & Tabs

Nofx Chords & Tabs

Version: 1 Type: Tab 0 ratings
1 star 2 stars 3 stars 4 stars 5 stars
comments

Beer Bong Tab

   
BEER BONG by NOFX. Album : Liberal Animation (1988)                       1/2
Great song with impression of heavy music.
A=Dave   B=Melvin   A&B=both
:
# intro #A
E---------------------------------------------------------------------|
B---------------------------------------------------------------------|
G---5-5-5--------------------7-7-7------------------------------------|
D---5-5-5--------------------7-7-7--------------------2-----------2---|
A---3-3-3--------------------5-5-5--------------------2---------------|
E-----------------------------------------------------0---------------|
# intro #B
E---------------------------------------------------------------------|
B---------------------------------------------------------------------|
G----------------------------7-7-7------------------------------------|
D---2-2-2--------------------7-7-7--------------------2---------------|
A---3-3-3--------------------5-5-5--------------------2---------------|
E---3-3-3---------------------------------------------0---------------|
:
# verse #A  
E-|-/--palm-muted---\-|-/-p-m-\-----|-------------|-|
B-|--------4X---------|-----4X------|-----4X------|-|
G-|-------------------|-------------|-91212-9-9-9-|-|
D-|-------------------|---------2---|-91212-9-9-9-|-|
A-|---5---5---22-2-22-|---5---5-2---|-71010-7-7-7-|-|
E-|-0-3-0-3-0-00-0-00-|-0-3-0-3-0---|-------------|-|
# verse #B
E-|-/--palm-muted---\-|-/-p-m-\-----|-------------|-|
B-|--------4X---------|-----4X------|-----4X------|-|
G-|-------------------|---------9---|-91212-9-9-9-|-|
D-|-------------------|---------9---|-91212-9-9-9-|-|
A-|---5---5---22-2-22-|---5---5-7---|-71010-7-7-7-|-|
E-|-0-3-0-3-0-00-0-00-|-0-3-0-3-----|-------------|-|
:
# chorus #A&B
E-|---------2X----------|--------------------------------|
B-|---------------------|--------------------------------|
G-|-7-7-7-5-5-5-9-9-9---|-7-9---7-9---7-9---7-9---7777---|
D-|-7-7-7-5-5-5-9-9-9---|-7-9---7-9---7-9---7-9---7777---|
A-|-5-5-5-3-3-3-7-7-7---|-5-7---5-7---5-7---5-7---5555---|
E-|---------------------|--------------------------------|
:
# bridge #A&B X2
E---------------------------------------------|END-1|-------END-2------------|
B---------------------------------------------|-----|------------------------|
G---4-4-4-5-5-5-------7777---4-4-4-5-5-5------|7777-|-9---7-9---7-9---7-9----|
D---4-4-4-5-5-5-5-5-5-7777---4-4-4-5-5-5-5-5-5|7777-|-9---7-9---7-9---7-9---2|
A---2-2-2-3-3-3-5-5-5-5555---2-2-2-3-3-3-5-5-5|5555-|-7---5-7---5-7---5-7----|
E---------------3-3-3--------------------3-3-3|-----|-----------------------0|
:
Then play AverseA or BverseB and A&BchorusA&B.
:
# bridge2 #A&B X2
E---------------------------------------------|END-1|-------END-2------------|
B---------------------------------------------|-----|------------------------|
G---4-4-4-5-5-5-------7777---4-4-4-5-5-5------|7777-|-9---7-9---7-9---7------|
D---4-4-4-5-5-5-5-5-5-7777---4-4-4-5-5-5-5-5-5|7777-|-9---7-9---7-9---7-2----|
A---2-2-2-3-3-3-5-5-5-5555---2-2-2-3-3-3-5-5-5|5555-|-7---5-7---5-7---5-2----|
E---------------3-3-3--------------------3-3-3|-----|-------------------0----|
:
# outro #A&B
E-------------------------------------------------------|
B-------------------------------------------------------|
G---5-5-5-------7-7-7-------4-4-4-------5-5-5-----------|
D---5-5-5-------7-7-7-------4-4-4-------5-5-5-------2---|
A---3-3-3-------5-5-5-------2-2-2-------3-3-3-------2---|
E---------------------------------------------------0---|
>>>>>>>>>>>>>>>to next page...
BEER BONG                                                                 2/2  
:
# outro2 #A&B
E-|-/--palm-muted---\-|-----------------|
B-|--------4X---------|-----------------|
G-|-------------------|---------9-------|
D-|-------------------|---------9---2---|
A-|---5---5---22-2-22-|---5---5-7---2---|
E-|-0-3-0-3-0-00-0-00-|-0-3-0-3-----0---|
:
How about a beer?
Tabbed by Jussi Heinonen 24.02.1999.

[ Tab from: http://www.guitartabs.cc/tabs/n/nofx/beer_bong_tab.html ]
Comments