Nofx - Bang Gang Chords & Tabs

 

Bang Gang Chords & Tabs

Nofx Chords & Tabs

Version: 1 Type: Tab 0 ratings
1 star 2 stars 3 stars 4 stars 5 stars
comments

Bang Gang Tab

BANG GANG by NOFX. Album: Maximum Rocknroll (1988?)
One of the nottoohard-songs.
:
# intro #
E---------------------------------------------------------|
B---------------------------------------------------------|
G---9-------------------------9---------------------------|
D---9-------------------------9---------------------5-4---|
A---7-------------------------7---------------------5-4---|
E---------------------------------------------------3-2---|
:
# verse #   X4              !only bass goes octave!
E---------------------------------------------------------------------|
B---------------------------------------------------------------------|
G-----------4-4-4-4-9---9-9---------5---5-5-4-4-4-4-------------------|
D---2---2-2-4-4-4-4-9---9-9-9-9-9-9-5---5-5-4-4-4-4-5---5-5-4-4-4-4---|
A---2---2-2-2-2-2-2-7---7-7-9-9-9-9-3---3-3-2-2-2-2-5---5-5-4-4-4-4---|
E---0---0-0-----------------7-7-7-7-----------------3---3-3-2-2-2-2---|
:
# bridge #  X2      use some palm-muting      (From all the gangs...)
E---------------------------------------------------------------------|
B---------------------------------------------------------------------|
G---------4-4-4-5-5-4-4-4-----------------4-4-4-5-5-------------------|
D---7-7-7-4-4-4-5-5-4-4-4-5-5-5-2-2-7-7-7-4-4-4-5-5-5-5-5-2-2-2-2-2---|
A---7-7-7-2-2-2-3-3-2-2-2-5-5-5-2-2-7-7-7-2-2-2-3-3-5-5-5-2-2-2-2-2---|
E---5-5-5-----------------3-3-3-0-0-5-5-5-----------3-3-3-0-0-0-0-0---|
:
Then play verse X2.
:
# bridge2 #   X2    use some palm-muting      (Everyone knows...)
E---------------------------------------------------------------------|
B---------------------------------------------------------------------|
G-----------------------------------------------7-7-5-5-5-4-4-4-4-4---|
D---7-7-7-2-2-2-4-4-3-3-3-5-5-5-5-5-7-7-7-2-2-2-7-7-5-5-5-4-4-4-4-4---|
A---7-7-7-2-2-2-4-4-3-3-3-5-5-5-5-5-7-7-7-2-2-2-5-5-3-3-3-2-2-2-2-2---|
E---5-5-5-0-0-0-2-2-1-1-1-3-3-3-3-3-5-5-5-0-0-0-----------------------|
:
Then play verse X1 (with pause and end with first note).
Easy one!
Tabbed by Jussi Heinonen 25.03.1998.

[ Tab from: http://www.guitartabs.cc/tabs/n/nofx/bang_gang_tab.html ]
Comments