Nofx - American Errorist Chords & Tabs

 

American Errorist Chords & Tabs

Nofx Chords & Tabs

Version: 2 Type: Tab 0 ratings
1 star 2 stars 3 stars 4 stars 5 stars
comments

American Errorist Tab

   
-----------------------------------------------------------------------------
		 American Errorist(I Hate Hate Haters) - NOFX
-----------------------------------------------------------------------------
Tabbed by:Anti-Wise
Email:Loserkid0908@wmconnect.com
email me with comments

Tuning:standard

Intro - 2x
e|---------------------------------------------------------------------------|
B|---------------------------------------------------------------------------|
G|---9--9-9-9-9-9-9-9--9--9-9-9-9-9-9-9-9--9---------------------------------|
D|---9--9-9-9-9-9-9-9--9--9-9-9-9-9-9-9-9--9---------------------------------|
A|---7--7*7*7*7*7*7*7*-7--7*7*7*7*7*7*7*7*-7---------------------------------|
E|---------------------------------------------------------------------------|

Bridge - 4x
e|---------------------------------------------------------------------------|
B|---------------------------------------------------------------------------|
G|---------------------------------------------------------------------------|
D|---------------------------------------------------------------------------|
A|---------------------------------------------------------------------------|
E|--0*0*0*0*0*0*-3*3*3*-5*5*5*---0*0*0*0*0*0*-3*3*3*-5*5*5*------------------|

Verse - 4x
e|---------------------------------------------------------------------------|
B|---------------------------------------------------------------------------|
G|--9-9-9-9-9-9-9-9-9-9-9-9--5-5-5-5-5-5-5-5-5-5-5---------------------------|
D|--9-9-9-9-9-9-9-9-9-9-9-9--5-5-5-5-5-5-5-5-5-5-5---------------------------|
A|--7-7-7-7-7-7-7-7-7-7-7-7--3-3-3-3-3-3-3-3-3-3-3---------------------------|
E|---------------------------------------------------------------------------|

Chorus
e|---------------------------------------------------------------------------|
B|---------------------------------------------------------------------------|
G|---------------------------------------9-9-9-9-9-9-9-9---1010101010101010--|
D|--5-5-5-5-5-5-5-5---5-5-5-5-5-5-5-5-5--9-9-9-9-9-9-9-9---8-8-8-8-8-8-8-8---|
A|--5-5-5-5-5-5-5-5---5-5-5-5-5-5-5-5-5--7-7-7-7-7-7-7-7---8-8-8-8-8-8-8-8---|
E|--3-3-3-3-3-3-3-3---2-2-2-2-2-2-2-2-2--------------------------------------|
[ Tab from: http://www.guitartabs.cc/tabs/n/nofx/american_errorist_tab_ver_2.html ]
Solo:   (with Wah-Wah)
e|---------------------------------------------------------------------------|
B|--15--15-----15---------15--------15---------------------------------------|
G|--14b-14b-12-14b-14-12--14br14-12-14-b-------------------------------------|
D|---------------------------------------------------------------------------|
A|---------------------------------------------------------------------------|
E|---------------------------------------------------------------------------|

e|---------------------------------------------------------------------------|
B|--15--15-----15---------15-------------------------------------------------|
G|--14b-14b-12-14b-14-12--14br14-12-14p12------------------------------------|
D|---------------------------------------------------------------------------|
A|---------------------------------------------------------------------------|
E|---------------------------------------------------------------------------|

e|---------------------------------------------------------------------------|
B|--15--15-----15---------15--------15---------------------------------------|
G|--14b-14b-12-14b-14-12--14br14-12-14-b-------------------------------------|
D|---------------------------------------------------------------------------|
A|---------------------------------------------------------------------------|
E|---------------------------------------------------------------------------|

e|---------------------------------------------------------------------------|
B|--15--15-----15---------15-------------------------------------------------|
G|--14b-14b-12-14b-14-12--14br14-12-14p12------------------------------------|
D|---------------------------------------------------------------------------|
A|---------------------------------------------------------------------------|
E|---------------------------------------------------------------------------|

e|---------------------------------------------------------------------------|
B|--15--15-----15------------------------------------------------------------|
G|--14b-14b-12-14b-14-12--14-12----------------------------------------------|
D|------------------------------14-12----------------------------------------|
A|------------------------------------14-12----------------------------------|
E|------------------------------------------16-12\---------------------------|

e|---------------------------------------------------------------------------|
B|-----3---------------------------------------------------------------------|
G|--2b---2b---2p0------------------------------------------------------------|
D|----------------2~---------------------------------------------------------|
A|---------------------------------------------------------------------------|
E|---------------------------------------------------------------------------|

| *  palm mute
| /  slide up
| \  slide down
| h  hammer-on
| p  pull-off
| ~  vibrato
| +  harmonic
| x  Mute note
===============================================================================
Comments