Nofx - All His Suits Are Torn Chords & Tabs

 

All His Suits Are Torn Chords & Tabs

Nofx Chords & Tabs

Version: 3 Type: Tab 0 ratings
1 star 2 stars 3 stars 4 stars 5 stars
comments

All His Suits Are Torn Tab

   
-------------------------------------------------------------------------------
			 All His Suits Are Torn - NoFx
-------------------------------------------------------------------------------
Tabbed by: Fornikal
Email: fornikal@hotmail.com

Tuning: Standard

Verse 1
e|---------------------------------------------------------------------------|
B|---------------------------------------------------------------------------|
G|---------------------------------------------------------------------------|
D|-10-x16---7-x16-----------10-x16-------------------------------------------|
A|-8--------5-------8-x16---8------------------------------------------------|
E|------------------6--------------------------------------------------------|
PM .        .       .       .   

e|---------------------------------------------------------------------------|
B|---------------------------------------------------------------------------|
G|-10-x16---7-x16---------------------------------------6--------------------|
D|-10-------7-------8-x8---10-x8---12-x8---10-x8---8----8--------------------|
A|-8--------5-------8------10------12------10------8----8--------------------|
E|------------------6------8-------10------8-------6----6--------------------|
PM .        .           

Verse 2                              Guitar 2 (clean)
e|----------------------------------|----------------------------------------|
B|----------------------------------|--------10------------------------------|
G|----------------------------------|-----10---------10----------------------|
D|-10-x16---7-x16-----------10-x16--|-------------10-------------------------|
A|-8--------5-------8-x16---8-------|---8-------8----------------------------|
E|------------------6---------------|----------------------------------------|
PM .        .       .       .  

e|---------------------------------------------------------------------------|
B|---------------------------------------------------------------------------|
G|-10-x16---7-x16---------------------------------------6--------------------|
D|-10-------7-------8-x8---10-x8---12-x8---10-x8---8----8--------------------|
A|-8--------5-------8------10------12------10------8----8--------------------|
E|------------------6------8-------10------8-------6----6--------------------|
PM .        .           

Pre-Chorus
e|---------------------------------------------------------------------------|
B|---------------------------------------------------------------------------|
G|-10-10---10-10---11-x16----------------------------------------------------|
D|-10-10---10-10---11--------------------------------------------------------|
A|-8--8----8--8----9---------------------------------------------------------|
E|---------------------------------------------------------------------------|

Chorus
e|---------------------------------------------------------------------------|
B|---------------------------------------------------------------------------|
G|---------------------------------------------------------------------------|
D|-8-x8---3-x8---10-x8---12-x8-----8-x8---8-x8---10-x8---12-x8---------------|
A|-8------3------10------12--------8------8------10------12------------------|
E|-6------1------8-------10--------6------5------8-------10------------------|
[ Tab from: http://www.guitartabs.cc/tabs/n/nofx/all_his_suits_are_torn_tab_ver_3.html ]
e|---------------------------------------------------------------------------|
B|---------------------------------------------------------------------------|
G|------------------------------------6--------------------------------------|
D|-8-x8---3-x8---10-x8---12-x8---8----8--------------------------------------|
A|-8------3------10------12------8----8--------------------------------------|
E|-6------1------8-------10------6----6--------------------------------------|

Verse 3                              Guitar 2 (distortion)
e|----------------------------------|------------------8---------------------|
B|----------------------------------|---------------10-----------------------|
G|----------------------------------|-----10-----10--------------------------|
D|-10-x16---7-x16-----------10-x16--|----------------------------------------|
A|-8--------5-------8-x16---8-------|---8------8-----------------------------|
E|------------------6---------------|----------------------------------------|
PM .        .       .       .  

e|---------------------------------------------------------------------------|
B|---------------------------------------------------------------------------|
G|-10-x16---7-x16---------------------------------------6--------------------|
D|-10-------7-------8-x8---10-x8---12-x8---10-x8---8----8--------------------|
A|-8--------5-------8------10------12------10------8----8--------------------|
E|------------------6------8-------10------8-------6----6--------------------|
PM .        .           

Pre-Chorus
e|---------------------------------------------------------------------------|
B|---------------------------------------------------------------------------|
G|-10-10--10-10---11-x16-----------------------------------------------------|
D|-10-10--10-10---11---------------------------------------------------------|
A|-8--8---8--8----9----------------------------------------------------------|
E|---------------------------------------------------------------------------|

Chorus
e|---------------------------------------------------------------------------|
B|---------------------------------------------------------------------------|
G|---------------------------------------------------------------------------|
D|-8-x8---3-x8---10-x8---12-x8-----8-x8---8-x8---10-x8---12-x8---------------|
A|-8------3------10------12--------8------8------10------12------------------|
E|-6------1------8-------10--------6------5------8-------10------------------|

e|---------------------------------------------------------------------------|
B|---------------------------------------------------------------------------|
G|---------------------------------------------------------------------------|
D|-8-x8---3-x8---10-x8---12-x8-----------------------------------------------|
A|-8------3------10------12--------------------------------------------------|
E|-6------1------8-------10--------------------------------------------------|

Outro x4
e|---------------------------------------------------------------------------|
B|---------------------------------------------------------------------------|
G|---------------------------------------------------------------------------|
D|-8---5---3-----------------------------------------------------------------|
A|-8---8---3-----------------------------------------------------------------|
E|-6---6---1-----------------------------------------------------------------|


| /  slide up
| \  slide down
| h  hammer-on
| p  pull-off
| ~  vibrato
| +  harmonic
| x  Mute note
===============================================================================
Comments