Nofx - All His Suits Are Torn Chords & Tabs

 

All His Suits Are Torn Chords & Tabs

Nofx Chords & Tabs

Version: 1 Type: Tab 0 ratings
1 star 2 stars 3 stars 4 stars 5 stars
comments

All His Suits Are Torn Tab

I figured out the start of the song by mistake wen i wuz jammin and i 
thought i recognised it so i went through five of my albums b4 i found
out wot it wuz and it wuz All His Suits Are Torn From So Long and Thanx 
4 All the Shoes, my favourite album. I luv this song so i decided 2 tab 
the rest of it.

This is my second tab, my utha 1 is Kicking Pigeons by [spunge].
[spunge] r amzin live and u shood go n c em!!

Im almost certain this tab is 100% correct but if u notice ne mistakes 
can u email the corrections 2 me @ itsjustnotrockin@hotmail.com.

Hope u enjoi the tab!!

Verse:
[ Tab from: http://www.guitartabs.cc/tabs/n/nofx/all_his_suits_are_torn_tab.html ]
E|---------------------------|
A|---------------------------|
D|---------------------------|
G|--9--X16--6--X16-----------|
B|--7-------4-------7--X16---|
E|------------------5--------|
    |_________PM_________| 
E|-----------------------------------------------------------|
A|-----------------------------------------------------------|
D|-----------------------------------------------------------|
G|--9--X16--6--X16--7--X4--9--X4--11--X4--9--X4--7--X4--10~--|
B|--7-------4-------7------9------11------9------7-------8~--|
E|------------------5------7------9-------7------5-------8~--|
    |______PM_______|      

Bridge:

E|------------------------|
A|------------------------|
D|---9-9-x-9-9---6--X16---|
G|---9-9-x-9-9---6--------|
B|---7-9-x-7-7---4--------|
E|------------------------|

Chorus:

E|--------------------------------|
A|--------------------------------|
D|--------------------------------|
G|---7--X4--2--X4--9--X4--11--X4--|
B|---7------2------9------11------|
E|---5------0------7-------9------|

E|--------------------------------|
A|--------------------------------|
D|--------------------------------|
G|---7--X4--7--X4--9--X4--11--X4--|
B|---7------7------9------11------|
E|---5------4------7-------9------|

E|--------------------------------|
A|--------------------------------|
D|--------------------------------|
G|---7--X4--2--X4--9--X4--11--X4--|
B|---7------2------9------11------|
E|---5------0------7-------9------|

E|------------|
A|------------|
D|------------|
G|7--X4--10~--|
B|7------10~--|
E|5-------8~--|

Ending:

E|----------------|
A|----------------|
D|----------------|
G|---7~--9~--2~---|
B|---7~--9~--2~---|
E|---5~--7~--0~---|


I havnt shown the order that everything goes in but its really simple.
Thanx 4 lookin @ my tab. There will b more soon.
Comments