Nofx - All His Suits Are Torn Chords & Tabs

 

All His Suits Are Torn Chords & Tabs

Nofx Chords & Tabs

Version: 2 Type: Bass Tab 0 ratings
1 star 2 stars 3 stars 4 stars 5 stars
comments

All His Suits Are Torn Bass Tab

-----------------------------------------------------------------------
                      All His Suits Are Torn - NOFX
-----------------------------------------------------------------------

Verse (#=x16,@=x8) -                   
               x2                      [cool drumming]
|---------------|---------------------------------------------|
|*-3#-0#----3#-*|---------------------------------------------|
|*-------1#----*|-1@-3@-5@-3@-1@-4-3-3-----------------3-3-5#-|
|---------------|---------------------------------------------|
[ Tab from: http://www.guitartabs.cc/tabs/n/nofx/all_his_suits_are_torn_btab_ver_2.html ]
Chorus -                           x2
|-----------------------------------|--------------------------------------|
|*---------------------------------*|--------------------------------------|
|*-1-1-1-1---------3-3-3-3-5-5-5-5-*|-1-1-1-1---------3-3-3-3-4-4-4-4-1#-4-|
|----------1-1-1-1------------------|---------1-1-1-1----------------------|

2nd Chorus -                       x2
|-----------------------------------|---------------------------------|
|*---------------------------------*|---------------------------------|
|*-1-1-1-1---------3-3-3-3-5-5-5-5-*|-1-1-1-1---------3-3-3-3-4-4-4-4-|
|----------1-1-1-1------------------|---------1-1-1-1-----------------|
           
           x4
|-----------|
|*---------*|
|*-1--4----*|
|--------1--|


Comments