Nofx - 60 Chords & Tabs

 

60 Chords & Tabs

Nofx Chords & Tabs

Version: 2 Type: Tab

60 Tab

NOFX - 60%
Tab by: Matthew Holmes Bennett

0:20
Clean
e---------------------------------------------------------------------------|
B---------2-----------2-----------2-----------2-----------------------------|
G-------2---2-------2---2-------2---2-------2---2---------2-----------2-----|
D-----2-------2---2-------2---2-------2---2-------2-----4---4-------4---4---|
A---0-----------0-----------0-----------0-------------4-------4---4-------4-|
E---------------------------------------------------2-----------2-----------|

e--------2------------------------------------------------------------------|
B------3---3----------------------2-----------2-----------------------------|
G----2-------2-------1----------2---2-------2---2---------2-----------2-----|
D--0---------------2---2------2-------2---2-------2-----4---4-------4---4---|
A----------------2-------2--0-----------0-------------4-------4---4-------4-|
E--------------0------------------------------------2-----------2-----------|

e--------2------------------------------------------------------------------|
B------3---3----------------------2-----------2-----------3-----------3-----|
G----2-------2-------1----------2---2-------2---2-------4---4-------4---4---|
D--0---------------2---2------2-------2---2-------2---4-------4---4-------4-|
A----------------2-------2--0-----------0-----------2-----------2-----------|
E--------------0------------------------------------------------------------|

e---------------------------------------------------------------------------|
B---------------------------------2-----------2-----------2-----------2-----|
G--------1-----------1----------2---2-------2---2-------2---2-------2---2---|
D------2---2-------2---2------2-------2---2-------2---2-------2---2-------2-|
A----2-------2---2-------2--0-----------------------------------------------|
E--0-----------0------------------------3-----------2-----------1-----------|

e--------------------------------------------------|
B--------3-----------3-----------------------------|
G------4---4-------4---4---------1-----------1-----|
D----4-------4---4-------4-----2---2-------2---2---|
A--2-----------2-------------2-------2---2------2--|
E--------------------------0-----------0-----------|

Distortion
e---------------------------12-----12----------12----12-------------12---12-----------12---12-------------------|
B---------------------12^---12^----12^----12^--12^---12^------12^---12^--12^----12^---12^--12^------------------|
G---------------------------------------------------------------------------------------------------------------|
D--7----7--7------7-------------------------------------------------------------------------------/////---------|
A--7----7--7------7-------------------------------------------------------------------------------/////---------|
E--5----5--5------5-------------------------------------------------------------------------------/////---------|

Guitar 1
2X
e-----------------------------------------------------------------------------------------------------------------------------------------|
B-----------------------------------------------------------------------------------------------------------------------------------------|
G----------------------------------------------------------------------7---7--7--7--7----9---9--9--9--9-----------------------------------|
D--7---7--7--7--7---7---7--7--7--7--4---4--4--4--4---4---4--4--4--4----7---7--7--7--7----9---9--9--9--9---7---7--7--7--7---7---7--7--7--7-|
A--7---7--7--7--7---7---7--7--7--7--4---4--4--4--4---4---4--4--4--4----5---5--5--5--5----7---7--7--7--7---7---7--7--7--7---7---7--7--7--7-|
E--5---5--5--5--5---5---5--5--5--5--2---2--2--2--2---2---2--2--2--2---------------------------------------5---5--5--5--5---5---5--5--5--5-|

Guitar 2 (1st time)
e-------------------------------------------------------------------------------------------------------------------------------12---12---------12---12---12--|
B--------------------------------------------------------------------------------------------------------------------------12^--12^--12^---12^--12^--12^--12--|
G-----------------------------------14--14-14-14-14--9-9-9--7-6-----------------------------------------------------------------------------------------------|
D-------------------------------------------------------------------------------------------------------------------------------------------------------------|
A-----------------------------------12--12-12-12-12--7-7-7--5-4-----------------------------------------------------------------------------------------------|
E-------------------------------------------------------------------------------------------------------------------------------------------------------------|
[ Tab from: http://www.guitartabs.cc/tabs/n/nofx/60_tab_ver_2.html ]
Guitar 2 (2nd time)
e---------------------------------------------------------------------------------------------------------------------------------------------------|
B---------------------------------------------------------------------------------------------------------------------------------------------------|
G-----------------------------------6--6--6--6--6--6--6--6--6--6---------------------------------------------------------------9--9-----------------|
D--------------------------------------------------------------------------------------------------------------------------9^---------9^--P7---9----|
A-----------------------------------4--4--4--4--4--4--4--4--4--4-----------------------------------------------------------------------------9------|
E---------------------------------------------------------------------------------------------------------------------------------------------------|

2x
e --2--2--2--2-----0--0--0--0-----0--0--0--0----2--2--2--2---|
B --3--3--3--3-----0--0--0--0-----2--2--2--2----2--2--2--2---|
G --4--4--4--4-----1--1--1--1-----2--2--2--2----3--3--3--3---|
D --4--4--4--4-----2--2--2--2-----2--2--2--2----4--4--4--4---|
A --2--2--2--2-----2--2--2--2-----0--0--0--0----4--4--4--4---|
E -----------------0--0--0--0-------------------2--2--2--2---|

e --2--2--2--2------0--0--0--0-----|
B --3--3--3--3------0--0--0--0-----|
G --4--4--4--4------1--1--1--1-----|
D --4--4--4--4------2--2--2--2-----|
A --2--2--2--2------2--2--2--2-----|
E ------------------0--0--0--0-----|

Guitar 1
e---------------------------------------------------------------------------------------------------------------------------|
B---------------------------------------------------------------------------------------------------------------------------|
G-----------------------------------------------------------------------7--7-7-7-7---9--9-9-9-9-----------------------------|
D---7--7--7--7--7---7--7--7--7--7---4--4--4--4--4---4--4--4--4--4-------7--7-7-7-7---9--9-9-9-9-----7--7-7-7-7---7--7-7-7-7-|
A---7--7--7--7--7---7--7--7--7--7---4--4--4--4--4---4--4--4--4--4-------5--5-5-5-5---7--7-7-7-7-----7--7-7-7-7---7--7-7-7-7-|
E---5--5--5--5--5---5--5--5--5--5---2--2--2--2--2---2--2--2--2--2-----------------------------------5--5-5-5-5---5--5-5-5-5-|

Guitar 2
e--------------------------------------------------------------------------------------------------------------------------------------|
B---------------------------------------------------------------------------------------------------------------10--10------10--10-----|
G-----------------------------------14-14-14-14-14-14-14-14---------------------------13-13-10-10-9----12^--12^--------12^---------12^-|
D--------------------------------------------------------------------------------------------------------------------------------------|
A-----------------------------------12-12-12-12-12-12-12-12---------------------------11-11-9--9--7------------------------------------|
E--------------------------------------------------------------------------------------------------------------------------------------|

Guitar 1
e-----------------------------------------------------------------------------------------------|
B-----------------------------------------------------------------------------------------------|
G---------------------------------------------------------------------7-7-7-7----9-9-9-9--------|
D--7--7--7--7--7---7--7--7--7--7---4--4--4--4--4---4--4--4--4--4------7-7-7-7----9-9-9-9----7---|
A--7--7--7--7--7---7--7--7--7--7---4--4--4--4--4---4--4--4--4--4------5-5-5-5----7-7-7-7----7---|
E--5--5--5--5--5---5--5--5--5--5---2--2--2--2--2---2--2--2--2--2----------------------------5---|

Guitar 2
e-----------------------------------------------------------------------------------------------|
B-----------------------------------------------------------------------------------------------|
G---------------------------------------------------------------------7-7-7-7-------------------|
D--7--7--7--7--7---7--7--7--7--7---4--4--4--4--4---4--4--4--4--4------7-7-7-7----2-2-2-2--------|
A--7--7--7--7--7---7--7--7--7--7---4--4--4--4--4---4--4--4--4--4------5-5-5-5----2-2-2-2--------|
E--5--5--5--5--5---5--5--5--5--5---2--2--2--2--2---2--2--2--2--2-----------------0-0-0-0--------|

Guitar 2
e--------12B---12BD~~~~~~---9--10--10-12-10--9-10-9------9-----------------------------------------------------------------------------------------------------------------------------------17-17--|
B-----------------------------------------------------12---12--10--12--10-----10----------------------------------------------------------------------------------------------------------14--------|
G--------------------------------------------------------------------------11----11--9--11--9-------9------------------------------------------------------------------------------14--16-----------|
D-----------------------------------------------------------------------------------------------11------11--9--11--9-------9-----------------------------------------------14--16-------------------|
A----------------------------------------------------------------------------------------------------------------------12------12--9--12--9-------9------------12--14--16---------------------------|
E---------------------------------------------------------------------------------------------------------------------------------------------12------12--14----------------------------------------|