Nofx - 180 Degrees Chords & Tabs

 

180 Degrees Chords & Tabs

Nofx Chords & Tabs

Version: 2 Type: Bass Tab 0 ratings
1 star 2 stars 3 stars 4 stars 5 stars
comments

180 Degrees Bass Tab

   
This song kicks ass!!!!!
standard tuning(EADG)
180 degrees
Nofx


INTRO 1x
G-------------------------|
D-------------------------|
A-3-------4-4-4-3-----3-3-|
E-------------------------|

pre-verse 2x
G-------------------------------------------------|
D-------------------------------------------------|
A-3-3-3-1-3---------------3-3-3-1-3---------4-4-4-|
E-----------1-4-4-4-1-1-1-----------1-3-3-3-------|

ska-line 3x
G----------------------------------------------------------------->
D------2-5-------2-5--5--5-3-0--5-5-5-3-5-3-0--0-3-0--0--0--0-3-0->
A-3--3------3--3-------------------------------------------3------>
E----------------------------------------------------------------->

>------------------------|------------------------------|-end 3-|
>-3-3-3-3-3-2-0--3-3-3-3-|-3-3-3-3-3-2-0--3-3-3-3-3-2-0-|-------|
>------------------------|------------------------------|-------|
>-------end 1------------|-----------end 2--------------|-11111-|
[ Tab from: http://www.guitartabs.cc/tabs/n/nofx/180_degrees_btab_ver_2.html ]
verse (great thing about.....)2x
G--------------------------------------------------->
D--------------------------------------------------->
A-33333333333-222222222222-555555555555-88888888888->
E--------------------------------------------------->

>----------------end 1----------------|----end 2------|
>-------------------------------------|---------------|
>-8-7-5-3---333333333333---3--1--0--8-|-8-7-5-3-33333-|
>-------------------------------------|---------------|

verse2 im not sure if this is right but it sounds good.
G--------------------77777777------------------------------->
D-----------5555555------------33333333------------5555555-->
A--3333333-------------------------------33333333----------->
E----------------------------------------------------------->

>-----------------------------------------77777777---------->
>-000000000--33333333------------55555555----------3333333-->
>----------------------333333333---------------------------->
>----------------------------------------------------------->

>---------------------------------|
>----------55555555---3-----------|
>-33333333------------------------|
>---------------------------------|

then play ska-line 1x 


now that is punk man!!
hope your satisfied
enjoy!!!!
Ryan D.
Comments