Nofx - 13 Stitches Chords & Tabs

 

13 Stitches Chords & Tabs

Nofx Chords & Tabs

Version: 1 Type: Bass Tab 0 ratings
1 star 2 stars 3 stars 4 stars 5 stars
comments

13 Stitches Bass Tab

g------------------------------------------------------------------------|
d------------------------------------------------------------------------|
a---------------------------------3-3-3-3-3-3-3--------------------------|
e-3-3-3-3-3-3-3-3-5-5-5-5-5-5-5-5---------------3-3-3-3-3-3-3-3----------|

g------------------------------------------------------------------------|
d------------------------------------------------------------------------|
a-5-5-5-5-5-5-5-5-----------------3-3-3-3-3-3-3-3------------------------|
e-----------------0-0-0-0-0-0-0-0-----------------3-3-3-3-3-3-3-3--------|

g------------------------------------------------------------------------|
d------------------------------------------------------------------------|
a-5-5-5-5-5-5-5-5-----------------3-3-3-3-3-3-3-3-5-5-5-5-5-5-5-5--------|
e-----------------0-0-0-0-0-0-0-0----------------------------------------|

g------------------------------------------------------------------------|
d------------------------------------------------------------------------|
a---------------------------------3-3-3-3-3-3-3--------------------------|
e-3-3-3-3-3-3-3-3-5-5-5-5-5-5-5-5---------------3-3-3-3-3-3-3-3----------|

g------------------------------------------------------------------------|
d------------------------------------------------------------------------|
a-5-5-5-5-5-5-5-5-----------------3-3-3-3-3-3-3-3------------------------|
e-----------------0-0-0-0-0-0-0-0-----------------3-3-3-3-3-3-3-3--------|
[ Tab from: http://www.guitartabs.cc/tabs/n/nofx/13_stitches_btab.html ]
g------------------------------------------------------------------------|
d------------------------------------------------------------------------|
a-5-5-5-5-5-5-5-5-----------------3-3-3-3-3-3-3-3------------------------|
e-----------------0-0-0-0-0-0-0-0-----------------3-3-3-3-3-3-3-3--------|

                           trumpet solo


g------------------------------------------------------------------------|
d------------------------------------------------------------------------|
a-5-5-5-5-5-5-5-5-----------------3-3-3-3-3-3-3-3------------------------|
e-----------------0-0-0-0-0-0-0-0-----------------3-3-3-3-3-3-3-3--------|

g------------------------------------------------------------------------|
d------------------------------------------------------------------------|
a-5-5-5-5-5-5-5-5-----------------3-3-3-3-3-3-3-3-5-5-5-5-5-5-5-5--------|
e-----------------0-0-0-0-0-0-0-0----------------------------------------|

                         back to the regular thingy
g------------------------------------------------------------------------|
d------------------------------------------------------------------------|
a---------------------------------3-3-3-3-3-3-3--------------------------|
e-3-3-3-3-3-3-3-3-5-5-5-5-5-5-5-5---------------3-3-3-3-3-3-3-3----------|

g------------------------------------------------------------------------|
d------------------------------------------------------------------------|
a-5-5-5-5-5-5-5-5-----------------3-3-3-3-3-3-3-3------------------------|
e-----------------0-0-0-0-0-0-0-0-----------------3-3-3-3-3-3-3-3--------|


g------------------------------------------------------------------------|
d------------------------------------------------------------------------|
a-5-5-5-5-5-5-5-5-----------------3-3-3-3-3-3-3-3------------------------|
e-----------------0-0-0-0-0-0-0-0-----------------3-3-3-3-3-3-3-3--------|
Comments