Noel Gallaghers High Flying Birds - If I Had A Gun Chords & Tabs

 

Noel Gallaghers High Flying Birds Chords & Tabs

Version: 1 Type: Bass Tab 0 ratings
1 star 2 stars 3 stars 4 stars 5 stars
comments

If I Had A Gun Bass Tab

   
Noel Gallaghers High Flying Birds
Tabbed by samuel97

Standard tuning: EADG

I've tabbed this by ear and I'm pretty sure it is 100% correct.
Sounds great when played to the song.
It isn't particularly difficult and is played WITHOUT a plectrum.

Have fun! :)

Intro

G|-------------------|-------------------|
D|-------------------|-------------------|
A|-------------------|-------------------|
E|-55-/-77--/--2-2-22|-55-/-77--/--2-2-22|

Verse: Play X2

G|-------------------|-------------------| 
D|-------------------|-------------------|
A|-------------------|-------------------|
E|-55-/--7--/--2-2-22|-55-/-77--/--2-2-22| 

Bridge

G|-------------------|-------------------|
D|-------------------|-------------------|
A|-------------------|-------------------|
E|-55-/-77--/--2-2-22|-55-/-77--/--2-2-22|

Play Verse again but add this on to the end of the last bar...

G|-------------------|
D|-------------------|
A|-------------------|
E|-55-/-77--/--2-2-00|

Chorus
[ Tab from: http://www.guitartabs.cc/tabs/n/noel_gallaghers_high_flying_birds/if_i_had_a_gun_btab.html ]
G|-------------------|-------------------|-------------------|
D|-------------------|-------------------|-------------------|
A|-5-5-5-5-----------|-5-5-5-5-----------|-5-5-5-5-----------|
E|---------5-5-5-5---|---------2-2-0-0---|---------5-5-0-0---|

G|-------------------|
D|-------------------|
A|---------5-5-5-5---|
E|-7-7-7-7-----------|

Play Bridge X2 with extra two open notes on the E string on the final bar...

E|-2-2-00-|

Then play the Chorus with this on the E string on the last bar...

E|-5-5-5-5-0-0-0-0---|

Bridge #2 Play X4

G|-------------------|
D|-------------------|
A|--------77---------|
E|-77--55----00------|

Chorus (With slight variation)

G|-------------------|-------------------|-------------------|
D|-------------------|-------------------|-------------------|
A|-5-5-5-5-----------|-5-5-5-5-----------|-5-5-5-5-----------|
E|---------5-5-0-0---|---------2-2-0-0---|---------5-5-0-0---|

G|-------------------|
D|-------------------|
A|---------5-5-5-5---|
E|-7-7-7-7-----------|

Bridge played once.

Outro

G|-------------------|------------------|
D|-------------------|------------------|
A|-------------------|------------------|
E|-55-/--7--/-2-2-22-|-55-/-77--/-2-----|





Comments
Noel Gallaghers High Flying Birds chords | Noel Gallaghers High Flying Birds If I Had A Gun tab