Noel Cabangon - Kanlungan Chords & Tabs

 

Kanlungan Chords & Tabs

Noel Cabangon Chords & Tabs

Version: 1 Type: Tab 0 ratings
1 star 2 stars 3 stars 4 stars 5 stars
comments

Kanlungan Tab

   
INTRO:
  E        A9           B        C#m7        A         G#m7
------------------0-- --2-----0----------- -------------------------
----------------0---- --------0----------- --2------0--------5------
------0-2-----2------ ------2----------5-- ------2--------------2---
--------------------- ----4--------------- ----2----------2---------
----2------0--------- --2----------7-6---- --0----------------------
--0------------------ -----------4-------- ------------4------------
                      Pana-panahon...                        mai-
  F#m7     B7          E          C#m7         A        B7
-----------------0-- --------------------0-- -----------0-----------
-----------------0-- ------------------0---- --------0-------4------
--------2----------- --------1-------1------ ------2------------2---
------2-------1----- ----------------------- ----2---------1--------
----4------2-------- -----2-------4--------- --0--------2-----------
--2----------------- --0-------------------- -----------------------
  babalik...          kaha      pon
  E        A9          B7        C#m7       C#m7        A         G#m7
--------0----------- --------0--------0-- ------0---- ---------------------
------0----------0-- ---------------0---- ----0---0-- ---------0------5----
---------------2---- ------2------1------ --1-------- -------2----------2--
-------------2------ ----1--------------- ----------- -----2--------2------
----2------0-------- --2--------4-------- ----------- --0------------------
--0----------------- -------------------- ----------- ------------4--------
                   VERSE:
                    Natatandaan...                          nana tayong...
  F#m      B7        A        B7          C#m7              A        B7
--------2------0-- -------------------- --------7--------- -----------------
------------------ --------0--------0-- --------5----5---- -------0--4-----4
--------2------2-- ------2--------2---- ------4--------4-- -----2--------2--
------2------1---- ----2--------1------ ----6------6------ ---2--------4----
----4------2------ --0--------2-------- --4--------------- -0--------2------
--2--------------- -------------------- ------------------ -----------------
                    panahon ng kamusmusan...
  E        C#m         A         B7            C#m7      
---------------0---- --0------------------- --------0---0------ 
--------0--------0-- --2------2--4------4-- ------0-------0---- 
------1------1------ -------2---------2---- ----1-----1-----1-- 
-------------------- -----2---------4------ -------------------
----2------4-------- --0---------2---------- --4---------------- 
--0----------------- ---------------------- -------------------
sa piling...
  A        B7
--------0----------------
------2----4------4------
----------------2--------
----2---------4----------
--0--------2-------------
-------------------------
                   doon tayo...
  C#m7        B7    A       B7          C#m7
--0-----0-------- --0-----0---------- ---------0------0------------
--0-------0---4-- ------0---4-----4-- -------0------0---0----------
------1-----1---- ----2---------2---- -----1------1----------------
----2---------2-- ------------4------ -----------------------------
--4-------------- --0-------2-------- --4--------------------------
----------------- ------------------- -----------------------------
nangarap at     tumu  la...
  A        B7           C#m7                 E
--------0------------ ---------0--------- --------0----------------
-----------4------4-- -------0----0------ ----------0--------------
------2---------2---- -----1--------1---- ------------1------------
----2---------4------ ----------------2-- ------1-------2----------
--0--------2--------- ------------------- ----2-----------2--------
--------------------- --4---------------- --0----------------------
CHORUS:
 Ang mga...                       ay ka-
 A       B7          C#m7        /B
------------------- --------0------------------
----------------4-- ------0---0----------------
--------0-----2---- ----1-------1---1----------
------2-----4------ ---------------------------
----2-----2-------- --4-----4-----2------------
--0---------------- ---------------------------
biyak ng..                        sa paglipas ng..                     bakit
  A        B7          C#m7        /B      A       B7        C#m7    /B
-------------------- --------0---------- ------------------ -------0------0-
--------0--------0-- ------0---0-------- --------0-------0- -----0-------0--
------2--------2---- ----1-------1------ ------2-------2--- ---1-------1----
----2--------1------ ----------------1-- ----2-------1----- ----------------
--0--------2-------- --4-----4-----2---- --0-------2------- -4-------2------
-------------------- ------------------- ------------------ ----------------
  kailangan... 
 Bbdim     A           B7
---------0----------- ---------0--
-------2----------2-- ---------0--
-----1----------2---- ------2-----
--------------2------ ----1-------
--1---------0-------- --2------2--
--------------------- ------------
Pana-panahon...                     mai    babalik  ba 
 E          C#m7        A      B7          E        A
----------0--------0-- ---------0-------- ---------0-----------
-----------------0---- -------0-----4---- -----------------0---
-------1-------1------ -----2---------2-- -------1-------2-----
---------------------- ----2------1------ -------------2-------
----2--------4-------- --0------2-------- ----2------0---------
--0------------------- ------------------ --0------------------
ang kaha   pon...  
  B7       C#m7       C#m7        E      A             B7        C#m7
--------0-------0-- ------0---- -----------------0-- ---------0------------
--------------0---- --0-----0-- ---------------2---- --4------0---------5--
------2-----1------ ----1------ ------1--2---2------ -------2--------------
----1-------------- ----------- -----------2-------- -----4--------7-6-----
--2-------4-------- ----------- ----2----0---------- --2---------4---------
------------------- ----------- --0----------------- ----------------------

Tabbed by:Gie Edilo
Submitted by:christian
[ Tab from: http://www.guitartabs.cc/tabs/n/noel_cabangon/kanlungan_tab.html ]
Comments