Noel Cabangon - Kahit Maputi Na Ang Buhok Ko Chords & Tabs

 

Noel Cabangon Chords & Tabs

Version: 1 Type: Tab 0 ratings
1 star 2 stars 3 stars 4 stars 5 stars
comments

Kahit Maputi Na Ang Buhok Ko Tab

   
Title: Kahit Maputi Na Ang Buhok Ko (Key of F  Capo in 1st Fret)
Artist: Noel Cabangon
Tab by: Dennis L.						
Entered by: Glen A. (gl3n_00019@yahoo.com)

comments & suggestions are welcom!
Pakirate nalang po kung nagustuhan nyo, salamat! 			

    INTRO:
	    E--	
e||--4---4--5-------7---7h9--7-5-|---5h7--5--4---4-5--------7--|
B||----0----6-6-^-8------------6-|-------------0---6--6-^-8-7--|
G||------------------------------|-----------------------------|
D||------------------------------|-----------------------------|
A||------------------------------|-----------------------------|
E||--0------0---------0----------|-0---------0-----0-----------|
										   
				      	     G#m7		
e||--------------------------|----------------------------|
B||--------------------------|----------------------------|
G||---------------------(tap)|---1-(tap)-4--(tap)--4-(tap)|
D||--------------------4-----|--4--------4-4------4-------|
A||--------------------------|----------------------------|
E||-------------------0------|-0---------4-------4--------|
 Kung tayo ay matanda na		    Sana-y

		   G#m7			A	    A/B
e||-------------------------------------------------------|
B||-------------------------------------------------------|
G||--2-(tap)-----2--2---(tap)----2-(tap)---  ~ do ~ ------|
D||--2---------2----2--2-------2--------------------------|
A||-0--------0------2--------2----------------------------|
E||-------------------------------------------------------|
  di   ta - yo mag- bago


		G#m7				G#m7			    
e||---------------------------|----------------------------|
B||---------------------------|-----------5--------5-------|
G||-------4-(tap)-4-(tap)--6--|---4-(tap)-4-(tap)--4-(tap)-|
D||-------1-------4-4-----7---|--4--------6-------6--------|
A||----------------------6----|-----------4------4---------|
E||-------4-------4-----------|-4--------------------------|
   Ang nakali-pas		ay   ibaba-lik   natin        


      Bm7	 Bm7/E      A	       	
e||------------2----------------0-------|
B||---3----------------0h2-----2--------|
G||---2-(tap)-2-(tap)--2-(tap)-2-(tap)--|
D||-----------4-------------------------|
A||-2-----------------0--------0--------|
E||-----------0-------------------------|
   ooh..  			   ipapa-A	    

[ Tab from: http://www.guitartabs.cc/tabs/n/noel_cabangon/kahit_maputi_na_ang_buhok_ko_tab.html ]
    B/A		   G#m7
E||------------------------------|
B||--4-------2-------4----4------|
G||--4-4(tap)-4(tap)-4----4-(tap-|
D||--4-------------------4-------|
A||----------0-------------------|
E||--0--------------4---4--------|
    Lala      ko    sa-yo



    Bm7   E7	  A	   B/A	     G#m7	
e||--2------0-----------------------------------------------|
B||-3------0--------2---2------4---4------4----4------------|
G||-2-----1---------2---2--4---4---4--4---4----4-(tap)------|
D||-4----0-------------2---4------4----------4--------------|
A||-2--------------0--0---0--0---0---0----------------------|
E||-----0-------------------------------4---4---------------|
     Nagtatanong   lang sa-yo  ako pa kaya ay ibigin mo



    C#7sus	C#7		 F#m7 
e||---4------------------------|
B||-7-------6------------2-----|
G||-4-(tap)-4-4-(tap)----2-----|
D||-6-------6------------2-----|
A||-4-------4------------------|
E||----------------------2-----|
		  Kahit maputi  	



    G#m7 A  A/B					   B/C#	
E||----------------------------------------------------|
B||-----2--2----------------------------------4--------|
G||-4---2--2-------(Intro)--------------------4--------|
D||-4---2--2----------------------------------4--------|
A||-----0--2----------------------------------4--------|
E||-4--------------------------------------------------|
         na  ang buhok ko..(2nd chorus)..buhok ko, oh..


e||----------------------------------------------0---2----|
B||-------------------------------------------0---0--2----|
G||----------1--------1----0------1----------1-1-----3----|
D||---------4----4---4-------1---4----4-----4--------4----|
A||--------2----2---2----2------2----2-----2---------4----|
E||-------0----0---0----0------0----0-----0----------2----|
 ...buhok...


LYRICS:

Kung tayoy matanda na
Sanay di tayo magbago
At kailan may nasaan may
Ito ang pangarap ko

Makuha mo pa kayang
Akoy hagkan at yakapin ooh
Hanggang pagtanda natin
Nagtatanong lang sa `yo
Ako pa kayay ibigin mo
Kung maputi na ang buhok ko

Pagdating ng araw
Ang yong buhok
Ay puputi na rin (puputi na rin)
Sabay tayong mangangarap
Ng nakaraan sa tin

[chorus]
Ang nakalipas ay ibabalik natin ooh
Ipapaalala ko sa yo
Ang aking pangako
Na ang pag-ibig koy laging sa yo
Kahit maputi na ang buhok ko

[repeat chorus]

Kahit maputi o wala na ang
Buhok ko
Comments