Nodes Of Ranvier - Its Gonna Be Ok Chords & Tabs

 

Its Gonna Be Ok Chords & Tabs

Nodes Of Ranvier Chords & Tabs

Version: 1 Type: Tab 0 ratings
1 star 2 stars 3 stars 4 stars 5 stars
comments

Its Gonna Be Ok Tab

Title: It's Gonna Be OK
Band: Nodes of Ranvier
Tuning: Drop D
Tabbed by: Scotty

-----------------------------------------------------------------------|
-----------------------------------------------------------------------|
-----------------------------------------------------------------------|
--------6-7-----6-4-----2-4-----2-0-----9-11-----9-7-----4-6-----4-2---|
------4-------4-------0-------0-------7--------7-------2-------2-------|
----4-------4-------0-------0-------7--------7-------2-------2---------|

harmonize with this
-----------------------------------------------------------------------|
--------8-9-----8-6-----4-6-----4-2----11-13----11-9-----6-8-----6-4---|
-----------------------------------------------------------------------|
-----------------------------------------------------------------------|
-----------------------------------------------------------------------|
-----------------------------------------------------------------------|

distorted
-----------------------------------------------------------------------|
-----------------------------------------------------------------------|
-----------------------------------------------------------------------|
----------------------------------4------------------------------------|
----4-/7-5---4p2h4---2p0h2--------4-/7-5---7h9p7---7h9/11--12\11-------|
-----------------------------------------------------------------------|
[ Tab from: http://www.guitartabs.cc/tabs/n/nodes_of_ranvier/its_gonna_be_ok_tab.html ]
-----------------------------------------------------------------------|
-----------------------------------------------------------------------|
-----------------------------------------------------------------------|
-----------------------------------------------------------------------|
-12-11-12-9-7-5-4-0-x3-11-9-11-9-7-5-4-0--12-11-12-9-7-5-4-0-----------|
-----------------------------------------------------------------------|

-----------------------------------------------------------------------|
-----------------------------------------------------------------------|
-----------------------------------------------------------------------|
-----------------------------------------------------------------------|
---12-11-12-14-17-16-14-12-12-11-12-7-5-4-0-12-11-12-9-7-5-4-0---------|
-----------------------------------------------------------------------|

-----------------------------------------------------------------------|
-----------------------------------------------------------------------|
-----------------------------------------------------------------------|
-----4-6--4---2---4----------------------------------------------------|
-----4--------2--------------------------------------------------------|
-----4--------2--------------------------------------------------------|

-----------------------------------------------------------------------|
-----------------------------------------------------------------------|
-----------------------------------------------------------------------|
-----------6-76-4--9-11--9-7--2-4--2-0--4-5/7--------------0-0-0------|
---------4----4----7-----7----0----0----2-------------------0-0-0------|
--------4----4----7-----7----0----0----2--------------------0-0-0------|
                                                            . . .

-----------------------------------------------------------------------|
-----------------------------------------------------------------------|
-----------------------------------------------------------------------|
-7-6-4--0-0-0--9ho11-9-7--6-4-2----------------------------------------|
-4-4-4--0-0-0--7--7--7-7--2-2-2----------------------------------------|
-4-4-4--0-0-0--7--7--7-7--2-2-2----------------------------------------|

random squeals, and improvised in this key.
Comments