Node - Shimoister Chords & Tabs

 

Shimoister Chords & Tabs

Node Chords & Tabs

Version: 1 Type: Tab 0 ratings
1 star 2 stars 3 stars 4 stars 5 stars
comments

Shimoister Tab

   
GERRY MC GUIGAN. . . . .SHIMOISTER.
Top Tune. Any one know the words? Heard
Node in the city one week, brilliant

soon....

[ Tab from: http://www.guitartabs.cc/tabs/n/node/shimoister_tab.html ]
Intro riff:
           
		   
Intro riff: + Verse 1                 \
      v  ^        v  ^                 \
E-----0--0--------0--0---------------   \
B-----0--0--------0--0---------------    \
G-----1--1--------1--1--------------- x3  \
D---2-----------2--------------------      \ 
A-0-----------3----------------------       \
E------------------------------------        \ 
                                              \ 
Then Play                                      > Play x2
                                              /
E--------------------------------------      /
B--------------------------------------     /
G---1----1----1------------------------    /
D------2---2-----2---------------------   /
A-2-----------------2------------------  / 
E-------------------------------------- /
                                       /
Pre Chorus

-|--------------------------------------
-|--------------------------------------
-|---1---1----1-------------------------
-|-----2---2-----2----------------------
-|-3----------------3-------------------
-|--------------------------------------


Chorus:

E    F   Dm   Dmsus4   Dm  x 3
then play
E    F   A7   D


Middle:

A   C    G    D   Dsus4    D x3
then play
A   C    G    D   Dsus4    D   Dsus4 ......


Outro:


E   F   A7   D7
E   F   A7   G7
E   F   A7   G
E   F   A7   D


You have to listen to get the rhythm right. CONTACT: gerryyy@hotmail.com
Comments