Nocturnal Rites - Ride On Chords & Tabs

 

Ride On Chords & Tabs

Nocturnal Rites Chords & Tabs

Version: 1 Type: Tab 0 ratings
1 star 2 stars 3 stars 4 stars 5 stars
comments

Ride On Tab

                    
                                          RIDE ON 
                                    BY NOCTURNAL RITES
                            FROM THE ALBUM THE SACRED TALISMAN

 
 TABBED BY DANIEL KALANDER
 daniel.kalander@swipnet.se

 NORMAL TUNING

  INTRO
e|------------------------------------------------------------------------------------------|
B|------------------------------------------------------------------------------------------|
G|-------------------10---9-------5---4-------9---10---7-----------10---9-------5---4-------|
D|-7-----------------7----7-------7---5-------7---7----5-----------7----7-------7---5-------|
A|-5--7--8--------------0----0-0----0----0-0----0----0----0-0-0-0-----0----0-0----0----0-0--|
E|----------8--7--3-------------------------------------------------------------------------|

e|-------------------|
B|-------------------|
G|-------------------|
D|-7-----------------|
A|-5--7--8-----------|
E|----------8--7--3--|

  
  VERSE x2
e|--------------------------------------------------------------------------------------|
B|--------------------------------------------------------------------------------------|
G|-2-----------------5--4--2----------2-----------------5--7--4-------------------------|
D|-2-----------------5--5--2----------2-----------------5--5--5------5------------------|
A|-0-0-0-0-0-0-0-0-0----------0-0-0-0-0-0-0-0-0-0-0-0-0--------------3-3-3-3-3-3-3-3-3--|
E|--------------------------------------------------------------------------------------|

e|---------------------------------------------|
B|---------------------------------------------|
G|---------------------------------------------|
D|-------------------2-------------------------|
A|-5-----------------0------2--3--0------------|
E|-3-3-3-3-3-3-3-3-3--------------------3-3-5--|


  BRIDGE
e|---------------------------------------------------------------|
B|---------------------------------------------------------------|
G|------------------------------------------------------------9--|
D|-------------------------------2-----2--4--5----------7-----9--|
A|-3---------2---------7---------0-0-0-0--2--3-3-3-3-3--5-----7--|
E|-1-1-1-1-1-0-0-0-0-0-3-3-3-3-3------------------------5-----7--|
[ Tab from: http://www.guitartabs.cc/tabs/n/nocturnal_rites/ride_on_tab.html ]
e|-------------------------------------------------------------------------------|
B|-------------------------------------------------------------------------------|
G|-------------------------------------------------------------------------------|
D|-------------------------------2-----2--4--5-----------------9-----------------|
A|-3---------2---------7---------0-0-0-0--2--3-3-3-3-3-3-3-3-3-7-7-7-7-7-7-7-7-7-|
E|-1-1-1-1-1-0-0-0-0-0-3-3-3-3-3-------------------------------------------------|


  CHORUS
e|---------------------------------------------------------------------------------------------|
B|---------------------------------------------------------------------------------------------|
G|--10---9-------5---4-------9---10---7-----------10---9-------5---4---------------------------|
D|--7----7-------7---5-------7---7----5-----------7----7-------7---5------7-----------------7--|
A|-----0----0-0----0----0-0----0----0----0-0-0-0-----0----0-0----0----0-0-5--7--8-----------7--|
E|---------------------------------------------------------------------------------8--7--3--5--|


  VERSE 
  BRIDGE
  CHORUS x2

  
  SOLO RYTHM
e|-----------------------------------------|
B|-----------------------------------------|
G|-----------------------------------------|
D|-5--7\------5--7\------5--3------2----5--|
A|-5--7\------5--7\------5--3------2----5--|
E|-3--5\------3--5\------3--1------0----3--|

e|--------------------------------------------------------------------------------------------|
B|--------------------------------------------------------------------------------------------|
G|--------------------------------------------------------------------------------------------|
D|-------------------7------------------------------------------------------------------------|
A|-3-----------------5-5-5-5-5-5-5-5-5-7---------------5-----------------2---------7----------|
E|-1-1-1-1-1-1-1-1-1-------------------5-5-5-5-5-5-5-5-3-3-3-3-3-3-3-3-3-0-0-0-0-0-3-3-3-3-3--|

e|--------------------------------------------------------------------------------------------|
B|--------------------------------------------------------------------------------------------|
G|--------------------------------------------------------------------------------------------|
D|-------------------7------------------------------------------------------------------------|
A|-3-----------------5-5-5-5-5-5-5-5-5-7---------------5-----------------2---------7----------|
E|-1-1-1-1-1-1-1-1-1-------------------5-5-5-5-5-5-5-5-3-3-3-3-3-3-3-3-3-0-0-0-0-0-3-3-3-3-3--|

e|-------------|
B|-------------|
G|-------------|
D|-2-----------|
A|-0--2--5--2--|
E|----0--3--0--|


  BRIDGE
  CHORUS x3
 

  ENDING
e|------------------------------------------------------------------------------------|
B|------------------------------------------------------------------------------------|
G|------------------------------------------------------------------------------------|
D|--------------------------------------------------------------------------------7\--|
A|-----------------5--7--8-----------7-----------------5--7--8-----------7--------7\--|
E|-5-5-5-5-5-5-5-5----------8--7--3--5-5-5-5-5-5-5-5-5----------8--7--3--5--------5\--|
Comments