Nocturnal Rites - Burn In Hell Chords & Tabs

 

Burn In Hell Chords & Tabs

Nocturnal Rites Chords & Tabs

Version: 1 Type: Tab 0 ratings
1 star 2 stars 3 stars 4 stars 5 stars
comments

Burn In Hell Tab

                                          BURN IN HELL
                                       BY NOCTURNAL RITES
                                         FROM THE ALBUM 
                                TALES OF MYSTERY AND IMAGINATION
 
 TABBED BY DANIEL KALANDER    
 daniel.kalander@swipnet.se

 NORMAL TUNING

  INTRO                                              x4
e|------------------------------------------------------|
B|------------------------------------------------------|
G|-9--------------10--------------9--------------10--7--|
D|-7--7-9-10-7-7--7---7-9-10-7-7--7--7-9-10-7-7--7---5--|
A|------------------------------------------------------|
E|------------------------------------------------------|

e|-----------------------------------------------------------------------------|
B|-----------------------------------------------------------------------------|
G|-5--------------------------10--7--9--------------10-------------7-----------|
D|-3-3-3-3-3-3-3-3-3-3-3-3-3--7---5--7--7-9-10-7-7--7--7-9-10-7-7--5--------2--|
A|--------------------------------------------------------------------------0--|
E|-----------------------------------------------------------------------------|

  
  VERSE 1
e|----------------------------------------------------------------------------------------|
B|----------------------------------------------------------------------------------------|
G|----------------------------------------------------------------------------------------|
D|-5--2-----------------------------------------------------------------------------------|
A|-3--0-0-0-0-0-0-0-0-0-0-0-0-0--2h3p2---------0-0-0-3--3-0-0-0------0-0-0-2--2--2h3p2----|
E|-------------------------------------3--1--1------------------1--1-------------------3--|

e|------------------------------------------------------------------------------------|
B|------------------------------------------------------------------------------------|
G|------------------------------------------------------------------------------------|
D|-2----------------------------------------------------------------------------------|
A|-0-0-0-0-0-0-0-0-0-0-0-0-0-2h3p2---------0-0-0-3--3-0-0-0------0-0-0-2--2--2h3p2----|
E|---------------------------------3--1--1------------------1--1-------------------3--|

e|------------------------------------------------------------------------------------|
B|------------------------------------------------------------------------------------|
G|------------------------------------------------------------------------------------|
D|-2----------------------------------------------------------------------------------|
A|-0-0-0-0-0-0-0-0-0-0-0-0-0-2h3p2---------0-0-0-3--3-0-0-0------0-0-0-2--2--2h3p2----|
E|---------------------------------3--1--1------------------1--1-------------------3--|

e|------------------------------------------------------------------------------------|
B|------------------------------------------------------------------------------------|
G|------------------------------------------------------------------------------------|
D|-2----------------------------------------------------------------------------------|
A|-0-0-0-0-0-0-0-0-0-0-0-0-0-2h3p2---------0-0-0-3--3-0-0-0------0-0-0-2--2--2h3p2----|
E|---------------------------------3--1--1------------------1--1-------------------3--|

 
  BRIDGE
e|--------------------------------------------------------------------------------|
B|--------------------------------------------------------------------------------|
G|-2------------------5--4-----------10--7--5------------------4------------------|
D|-0-0-0-0-0-0-0-0-0--3--2--0-0-0-0--7---5--3--3-3-3-3-3-3-3-3-2-2-2-2-2-2-2-2-2--|
A|--------------------------------------------------------------------------------|
E|--------------------------------------------------------------------------------|

e|--------------------------------------------------------------------------------|
B|--------------------------------------------------------------------------------|
G|-2-----------------4-----------------5-----------------7------------------9-----|
D|-0-0-0-0-0-0-0-0-0-2-2-2-2-2-2-2-2-2-3-3-3-3-3-3-3-3-3-5-5-5-5-5-5-5-5-5--7-----|
A|--------------------------------------------------------------------------------|
E|--------------------------------------------------------------------------------|


  CHORUS
e|----------------------------------------------------------------|
B|----------------------------------------------------------------|
G|-10--7--9--------------10--------------9--------------10--7--9--|
D|-7---5--7--7-9-10-7-7--7---7-9-10-7-7--7--7-9-10-7-7--7---5--7--|
A|----------------------------------------------------------------|
E|----------------------------------------------------------------|

e|------------------------------------------------------|
B|------------------------------------------------------|
G|-9--------------10--------------9--------------10--7--|
D|-7--7-9-10-7-7--7---7-9-10-7-7--7--7-9-10-7-7--7---5--|
A|------------------------------------------------------|
E|------------------------------------------------------|
[ Tab from: http://www.guitartabs.cc/tabs/n/nocturnal_rites/burn_in_hell_tab.html ]
e|--------------------------------------------------------------------|
B|--------------------------------------------------------------------|
G|-5--------------------------10--7--9--------------10-------------7--|
D|-3-3-3-3-3-3-3-3-3-3-3-3-3--7---5--7--7-9-10-7-7--7--7-9-10-7-7--5--|
A|--------------------------------------------------------------------|
E|--------------------------------------------------------------------|

  
  AFTER FIRST CHORUS
e|-------------------------------------------------------|
B|-------------------------------------------------------|
G|-------------------------------------------------------|
D|-2------7p5-----5p3-----3p2-----2p0--------------------|
A|-0----------8-7-----7-5-----5-3-----3-2-5P3-2---0h2----|
E|----------------------------------------------3-----3--|


  VERSE 2
e|------------------------------------------------------------------------------------|
B|------------------------------------------------------------------------------------|
G|------------------------------------------------------------------------------------|
D|-2----------------------------------------------------------------------------------|
A|-0-0-0-0-0-0-0-0-0-0-0-0-0-2h3p2---------0-0-0-3--3-0-0-0------0-0-0-2--2--2h3p2----|
E|---------------------------------3--1--1------------------1--1-------------------3--|

e|------------------------------------------------------------------------------------|
B|------------------------------------------------------------------------------------|
G|------------------------------------------------------------------------------------|
D|-2----------------------------------------------------------------------------------|
A|-0-0-0-0-0-0-0-0-0-0-0-0-0-2h3p2---------0-0-0-3--3-0-0-0------0-0-0-2--2--0-0-0----|
E|---------------------------------3--1--1------------------1--1----------------------|

  
  REPEAT BRIDGE AND CHORUS


e|----------------------------------------------------------------|
B|----------------------------------------------------------------|
G|----------------------------------------------------------------|
D|-3-3-3------5------2-2-2-2-2-2-2-2-2-2--------------3-3------5--|
A|-3-3-3------5------0-0-0-0-0-0-0-0-0-0--3--2--0-----3-3------5--|
E|-1-1-1------3------------------------------------3--1-1------3--|


  SOLO RYTHM
e|-------------------------------------------------------------|
B|-------------------------------------------------------------|
G|-------------------------------------------------------------|
D|-------------------------------------------------------------|
A|-----------------------3--2------------------2----5----------|
E|-5-5-5----3-3-5-5-5----------3----1-1-1------0----3---0---3--|

e|---------------------------------------------------------------------------------------|
B|---------------------------------------------------------------------------------------|
G|---------------------------------------------------------------------------------------|
D|---------------------------------------------------------------------------------------|
A|-----------------------3--2------------------2----5------------7--7--7--7--7--7--7--7--|
E|-5-5-5----3-3-5-5-5----------3----1-1-1------0----3---0---3----5--5--5--5--5--5--5--5--|

e|----------------------------------------------------------------------------------|
B|----------------------------------------------------------------------------------|
G|----------------------------------------------------------------------------------|
D|----------------------------------------------------------------------------------|
A|-3--------------------------------------------------------------------------------|
E|-1-1-1-1-1-1-1-1-3-3-3-3-3-3-3-3-5-5-5-5-5-5-5-5-3-3-3-3-3-3-3-3-1-1-1-1-1-1-1-1--|

e|---------------------------------------------|
B|---------------------------------------------|
G|---------------------------------------------|
D|---------------------------------------------|
A|-----------------0-0-0-0-2-2-2-2-3-3-3-3--5--|
E|-0-0-0-0-3-3-3-3--------------------------3--|

e|----------------------------------------------------------------------------------|
B|----------------------------------------------------------------------------------|
G|----------------------------------------------------------------------------------|
D|----------------------------------------------------------------------------------|
A|----------------------------------------------------------------------------------|
E|-1-1-1-1-1-1-1-1-3-3-3-3-3-3-3-3-5-5-5-5-5-5-5-5-3-3-3-3-3-3-3-3-1-1-1-1-1-1-1-1--|

e|--------------------------------------------------|
B|--------------------------------------------------|
G|--------------------------------------------------|
D|--------------------------------------------------|
A|-----------------0-0-0-0-2-2-2-2-3-3-3-3-3-3-3-3--|
E|-0-0-0-0-3-3-3-3----------------------------------|


  BRIDGE 2
e|--------------------------------------------------------------------------------|
B|--------------------------------------------------------------------------------|
G|-2-----------------4-----------------5-----------------7------------------9-----|
D|-0-0-0-0-0-0-0-0-0-2-2-2-2-2-2-2-2-2-3-3-3-3-3-3-3-3-3-5-5-5-5-5-5-5-5-5--7-----|
A|--------------------------------------------------------------------------------|
E|--------------------------------------------------------------------------------|

  
  CHORUS x2

e|--------------------------------------------|
B|--------------------------------------------|
G|--------------------------------------------|
D|-3--------5-----------------------------7\--|
A|-3--------5-----------------------------7\--|
E|-1--------3--------8-8-8-7-7-8-8-8-7-7--5\--|
Comments