Nobuo Uematsu - Opening Bombing Mission Chords & Tabs

 

Opening Bombing Mission Chords & Tabs

Nobuo Uematsu Chords & Tabs

Version: 1 Type: Tab 0 ratings
1 star 2 stars 3 stars 4 stars 5 stars
comments

Opening Bombing Mission Tab

   
1.2 Opening Bombing Mission (Two Guitars + Bass)

By Alex Parker
Hey Folks. To Come I'm Going To Post A FF7 Complete. Thats Right. All 85 Tracks In Tab

Tablature Legend: h - Hammer On
                  p - Pull Off
              tr~~~ - Trill
            / and \ - Slides (Glissando)
                  x - Fret Hand Muting
                5b7 - Bend
              5b7r5 - Bend And Release
                ~~~ - Vibrato
                 NH - Natural Harmonics
                 AH - Artificial Harmonics
                 PH - Pinched Harmonics
                 TH - Tapped Harmonics 
                TCH - Harmonics
              SCOOP - Whammy Bar Scoop
               DOOP - Whammy Bar Doop
                  T - Tapping
               X~~~ - Pick Scratch
            P,I,M,A - Pima Directions
                  < - Cresendo
                  > - Diminuendo
                ... - Let Ring (Only Where Neccessary)
e|----------------| - Repeat
B|*--------------*|
G|----------------|
D|----------------|
A|*-7-10-7-5-3-2-*|
E|----------------|		                

Classical Timing Legend: Bpm - Beats Per Minute
                       Largo - 40-60 Bpm
                   Larghetto - 60-66 Bpm
                      Adagio - 66-76 Bpm
                     Andante - 76-108 Bpm
                    Moderato - 108-120 Bpm
                     Allegro - 120-168 Bpm
                      Vivace - 168-180 Bpm
                      Presto - 180+ Bpm




Andante 
Bpm = 100
4/4 Timing

Part A (No Bass)

e|-12.....|........|........|....12.---|---------|----------|-----------|----------|
B|--------|--------|--------|-------12.|16.......|....15.---|14.12......|....------|
G|--------|--------|--------|----------|---------|-------14.|-----------|----------|
D|-14.....|........|........|....------|---------|----------|-----------|----14.---|
A|--------|--------|--------|----------|---------|----------|-----------|-------12.|
E|--------|--------|--------|----------|---------|----------|-----------|----------|
 |
e|--------|--------|--------|----------|---------|----------|-----------|----------|
B|--------|--------|--------|----------|---------|----------|-----------|----------|
G|--------|--------|--------|----------|---------|----------|-----------|----------|
D|--------|--------|2.......|..........|2........|..........|2..........|..........|
A|--------|--------|--------|----------|---------|----------|-----------|----------|
E|--------|--------|--------|----------|---------|----------|-----------|----------|

Part B (No Guitar 2)

 Em                                       F#/E
e|----------|----------|---------|--------|---------|--------|---------|--------|
B|----------|----------|---------|--------|---------|--------|---------|--------|
G|----------|----------|---------|--------|---------|--------|---------|--------|
D|----------|----14.---|12.......|........|16.......|........|11.......|........|
A|-14.......|....---12.|14.......|........|14.......|........|13.......|........|
E|-12.......|....------|---------|--------|15.......|........|14.......|........|
 |  
G|----------|----------|---------|--------|---------|--------|---------|--------|
D|----------|----------|---------|--------|---------|--------|---------|--------|
A|----------|----------|---------|--------|---------|--------|---------|--------|
E|-0...0.0..|0.........|0...0.0..|0.......|0...0.0..|0.......|0...0.0..|0.......|

Part C (No Guitar 2)

 E                                           C#                     Am
e|---------|-----------|----------|----------|4...------|-----------|----------|5...------|
B|---------|-----------|----------|--4h5h7.4.|6...6-----|-----------|1...------|----5-----|
G|---------|-----------|1...------|----------|6...-6....|...1h2h4.1.|----2-----|-----5....|
D|-2.......|...1h2h4.1.|----2-----|----------|----------|-----------|-----2....|-----7...-|
A|---------|-----------|-----2....|..--------|----------|-----------|----------|---------7|
E|---------|-----------|----------|----------|----------|-----------|----------|----------|
 |                                |                                 |                    
G|---------|\                    G|----------|----------|\         G|----------|\
D|-2.2.22.2| \X 3                D|2.---2.---|----------| \X 2*    D|----------| \X 2  
A|---------| /                   A|--2.---2.-|3.3.33.3--| /        A|0.0.00.0--| /
E|---------|/                    E|----------|----------|/         E|----------|/

 Am
e|-----------|12...---------|-----------|---------|
B|-----------|-----13-------|-----------|---------|
G|-----------|-------14...--|-----------|---------|
D|-----------|------------14|10...7-----|---------|
A|-3...0-----|--------------|------7...-|---------|
E|------0....|--------------|----------8|5........|
 |           |                          |         |
G|-----------|\                        G|---------|
D|-----------| \X 3                    D|---------|
A|-0.0.00.0--| /                       A|0........|                        
E|-----------|/                        E|---------|

Part D (No Guitar 2)

TEMPO CHANGE

Allegro
Bpm = 136
4/4 Timing

e|-------------------------|-------------------------|-------------------------|-------------------------|
B|-------------------------|-------------------------|-------------------------|-------------------------|
G|-------------------------|-------------------------|-------------------------|-------------------------|
D|-------------------------|-------------------------|-------------------------|-------------------------|
A|-------------------------|-------------------------|-------------------------|-------------------------|
E|-------------------------|-------------------------|-------------------------|-------------------------|
 |
G|-------------------------|-------------------------|-------------------------|-------------------------|
D|-------------------------|---------------------6---|-------------------------|---------------------6---|
A|-5-7-8-7-------6-5-----3-|-5-7-8-7-------6-5-------|-5-7-8-7-------6-5-----3-|-5-7-8-7-------6-5-------|
E|---------8-5-6-----5-4---|---------8-5-6-----5---4-|---------8-5-6-----5-4---|---------8-5-6-----5---4-|

e|-------------------------|-------------------------|-------------------------|-------------------------|
B|-------------------------|-------------------------|-------------------------|-------------------------|
G|-------------------------|-------------------------|-------------------------|-------------------------|
D|-------------------------|-------------------------|-------------------------|-------------------------|
A|-------------------------|-------------------------|-------------------------|-------------------------|
E|-------------------------|-------------------------|-------------------------|-------------------------|
 |                                                   
G|-------------------------|-------------------------|-------------------------|-------------------------|
D|-------------------------|---------------------6---|-------------------------|---------------------6---|
A|-5-7-8-7-------6-5-----3-|-5-7-8-7-------6-5-------|-5-7-8-7-------6-5-----3-|-5-7-8-7-------6-5-------|
E|---------8-5-6-----5-4---|---------8-5-6-----5---4-|---------8-5-6-----5-4---|---------8-5-6-----5---4-|

e|-------------------------|-------------------------|-------------------------|-------------------------|
B|-------------------------|-9---9-------------------|-------------------------|-------------------------|
G|-------------------------|-10--10------------------|-------------------------|-------------------------|
D|-------------------------|-12--12------------------|-3-----------------------|-------------------------|
A|-------------------------|-14--14--------11-10-9---|-5-----------------------|-------------------------|
E|-------------------------|-------------------------|-7-----------------------|-------------------------|
 |                         
G|-------------------------|-------------------------|-------------------------|-------------------------|
D|-------------------------|---------------------6---|-------------------------|---------------------6---|
A|-5-7-8-7-------6-5-----3-|-5-7-8-7-------6-5-------|-5-7-8-7-------6-5-----3-|-5-7-8-7-------6-5-------|
E|---------8-5-6-----5-4---|---------8-5-6-----5---4-|---------8-5-6-----5-4---|---------8-5-6-----5---4-|

Part E (No Guitar 2)

e|------------|-----------|-----------|----------|-----------|-----------|
B|------------|-----------|-4......---|-3........|-----------|-----------|
G|------------|-3.........|--------6..|----------|-----------|3.......6..|
D|-5..........|-----------|-----------|----------|-5.........|-----------|
A|------------|-----------|-----------|----------|-----------|-----------|
E|------------|-----------|-----------|----------|-----------|-----------|
 |            |
G|------------|\
D|------------| \X 8
A|------------| /
E|-3--3--3--3-|/

e|--------12h13h14h15-12h13h14h15-12h13h14h15-12h13h14h15-|-10.........|10......|10......|10......|
B|-3--------------|---------------------------------------|------------|13......|12......|11......|
G|----------------|---------------------------------------|------------|--------|--------|--------|
D|----------------|---------------------------------------|------------|--------|--------|--------|
A|----------------|---------------------------------------|------------|--------|--------|--------|
E|----------------|---------------------------------------|------------|--------|--------|--------|
                                                          |
                                                         G|------------|\
                                                         D|-5--5--5--5-| \For Rest Of Part E
                                                         A|------------| /
                                                         E|------------|/

e|-13....12....|13....15....|17........|.........|----------------------------|----------------------------|
B|-------------|------------|-----18---|13.......|----------------------------|----------------------------|
G|-14..........|............|----------|---------|----------------------------|----------------------------|
D|-------------|------------|----------|---------|----------------------------|----------------------------|
A|-------------|------------|----------|---------|-12-12--12-12--12-12--12-12-|-12-12--12-12--12-12--12-12-|
E|-------------|------------|----------|---------|----------------------------|----------------------------|

e|----------------------------|-----------|
B|----------------------------|-----------|
G|----------------------------|-----------|
D|----------------------------|-----------|
A|-12-12--12-12--12-12--12-12-|-12-12--12-|
E|----------------------------|-----------|

Part F (No Guitar 2)

e|-------------------------------------|-------------------------------------|
B|-------------------------------------|-------------------------------------|
G|-------------------------------------|-------------------------------------|
D|-------------------------------------|-------------------------------------|
A|-------------------------------------|-------------------------------------|
E|-------------------------------------|-------------------------------------|
 |                                                                         
G|-------------------------------------|-------------------------------------|
D|-------------------------------------|-------------------------------------|
A|-12-13-12----12----------------------|-12-13-12----12----------------------|
E|----------12----13-15-13-15-10-13-12-|----------12----13-15-13-15-10-13-12-|
[ Tab from: http://www.guitartabs.cc/tabs/n/nobuo_uematsu/opening_bombing_mission_tab.html ]
e|-------------------------------------|-------------------------------------|
B|-------------------------------------|-------------------------------------|
G|-------------------------------------|-------------------------------------|
D|-------------------------------------|-------------------------------------|
A|-12-13-12----12----------------------|-12-13-12----12----------------------|
E|----------12----13-15-13-15-10-13-12-|----------12----13-15-13-15-10-13-12-|
 |                                                                                                              
G|-------------------------------------|-------------------------------------|
D|-------------------------------------|-------------------------------------|
A|-12-13-12----12----------------------|-12-13-12----12----------------------|
E|----------12----13-15-13-15-10-13-12-|----------12----13-15-13-15-10-13-12-|

Maintain G|---------| On Bass For 8 Bars Whilst Guitar 1 Plays The Following.
         D|-0-0-0-0-|
         A|---------|
         E|---------|

  Dm  Bb    C   Cb    Dm  Bb    C   Cb    Dm  Bb    C   Cb    Dm  Bb    C   Cb 
| / / / / | / / / / | / / / / | / / / / | / / / / | / / / / | / / / / | / / / / |

Part G (No Guitar 2)

e|-------------------------------------|-------------------------------------|
B|-------------------------------------|-------------------------------------|
G|-------------------------------------|-------------------------------------|
D|-------------------------------------|-------------------------------------|
A|-------------------------------------|-------------------------------------|
E|-------------------------------------|-------------------------------------|
 |                                     
G|-------------------------------------|-------------------------------------|
D|-------------------------------------|-------------------------------------|
A|-12-13-12----12----------------------|-12-13-12----12----------------------|
E|----------12----13-15-13-15-10-13-12-|----------12----13-15-13-15-10-13-12-|

e|-------------------------------------|-------------------------------------|
B|-------------------------------------|-------------------------------------|
G|-------------------------------------|-------------------------------------|
D|-------------------------------------|-------------------------------------|
A|-12-13-12----12----------------------|-12-13-12----12----------------------|
E|----------12----13-15-13-15-10-13-12-|----------12----13-15-13-15-10-13-12-|
 |                                          
G|-------------------------------------|-------------------------------------|
D|-------------------------------------|-------------------------------------|
A|-12-13-12----12----------------------|-12-13-12----12----------------------|
E|----------12----13-15-13-15-10-13-12-|----------12----13-15-13-15-10-13-12-|

e|-------------------------------------|-------------------------------------|
B|-------------------------------------|-------------------------------------|
G|----------12.........................|............................---------|
D|----14-12----------------------------|-------------------------------14-12-|
A|-12----------------------------------|----------------------------12-------|
E|-------------------------------------|-------------------------------------|
 |                                          
G|-------------------------------------|-------------------------------------|
D|-------------------------------------|-------------------------------------|
A|-12-13-12----12----------------------|-12-13-12----12----------------------|
E|----------12----13-15-13-15-10-13-12-|----------12----13-15-13-15-10-13-12-|

e|-------------------------------------|-------------------------------------|
B|-------------------------------------|-------------------------------------|
G|----------14.........................|.....................................|
D|----12-14----------------------------|-------------------------------------|
A|-15----------------------------------|-------------------------------------|
E|-------------------------------------|-------------------------------------|
 |                                          
G|-------------------------------------|-------------------------------------|
D|-------------------------------------|-------------------------------------|
A|-12-13-12----12----------------------|-12-13-12----12----------------------|
E|----------12----13-15-13-15-10-13-12-|----------12----13-15-13-15-10-13-12-|

e|-------------------------------------|-------------------------------------|
B|-------------------------------------|-------------------------------------|
G|-------------------------------------|-------------------------------------|
D|------------------14--------12-------|-------------------------------------|
A|-12-15-14-12-------------------15-12-|-15-------12-------------------12-14-|
E|-------------------------------------|-------------------15-------15-------|
 |                                          
G|-------------------------------------|-------------------------------------|
D|-------------------------------------|-------------------------------------|
A|-12-13-12----12----------------------|-12-13-12----12----------------------|
E|----------12----13-15-13-15-10-13-12-|----------12----13-15-13-15-10-13-12-|

e|-------------------------------------|----------5..........................|
B|----------8.............-------------|-------------------------------------|
G|----9--7-----------------------9--7--|-5--7--9-----------------------------|
D|-7--------------------------7--------|-------------------------------------|
A|-------------------------------------|-------------------------------------|
E|-5...................................|-------------------------------------|
 |                                     
G|-------------------------------------|-------------------------------------|
D|-------------------------------------|-------------------------------------|
A|-12-13-12----12----------------------|-12-13-12----12----------------------|
E|----------12----13-15-13-15-10-13-12-|----------12----13-15-13-15-10-13-12-|

E|-------------------------------------|-------------------------------------|
B|-------------------------------------|-------------------------------------|
G|-------------------------------------|-------------------------------------|
D|----------5..........................|............................---------|
A|----7--5-----------------------------|-------------------------------7--5--|
E|-5-----------------------------------|----------------------------5--------|
 |                                     
G|-------------------------------------|-------------------------------------|
D|-------------------------------------|-------------------------------------|
A|-12-13-12----12----------------------|-12-13-12----12----------------------|
E|----------12----13-15-13-15-10-13-12-|----------12----13-15-13-15-10-13-12-|

E|-------------------------------------|-------------------------------------|
B|-------------------------------------|-------------------------------------|
G|-------------------------------------|-------------------------------------|
D|----------7..........................|.....................................|
A|----5--7-----------------------------|-------------------------------------|
E|-8-----------------------------------|-------------------------------------|
 |                                     
G|-------------------------------------|-------------------------------------|
D|-------------------------------------|-------------------------------------|
A|-12-13-12----12----------------------|-12-13-12----12----------------------|
E|----------12----13-15-13-15-10-13-12-|----------12----13-15-13-15-10-13-12-|

Part H (No Guitar 2)

E|-------------------------------------|-------------------------------------|
B|-------------------------------------|-------------------------------------|
G|-------------------------------------|-------------------------------------|
D|-------------------------------------|----------------13-------------------|
A|-15----14p13p12----14----13p12p10----|-13----12p11p10----12----------------|
E|-17----------------16----------------|-15----------------------13-10----13-|
 |                                      |
G|-------------------------------------|-------------------------------------|
D|-------------------------------------|-------------------------------------|
A|-12-13-12----12----------------------|-12-13-12----12----------------------|
E|----------12----13-15-13-15-10-13-12-|----------12----13-15-13-15-10-13-12-|

E|-------------------------------------|-------------------------------------|
B|-------------------------------------|-------------------------------------|
G|-------------------------------------|-------------------------------------|
D|----------5.................---------|-----------7.........................|
A|----7--5-----------------------7--5--|-----5--7----------------------------|
E|-5--------------------------5--------|--8----------------------------------|
 |                                     
G|-------------------------------------|-------------------------------------|
D|-------------------------------------|-------------------------------------|
A|-12-13-12----12----------------------|-12-13-12----12----------------------|
E|----------12----13-15-13-15-10-13-12-|----------12----13-15-13-15-10-13-12-|

Maintain G|---------| On Bass For 8 Bars Whilst Guitar 1 Plays The Following.
         D|-0-0-0-0-|
         A|---------|
         E|---------|

  Dm  Bb    C   Cb    Dm  Bb    C   Cb    Dm  Bb    C   Cb    Dm  Bb    C   Cb 
| / / / / | / / / / | / / / / | / / / / | / / / / | / / / / | / / / / | / / / / |

Part I
  
 Asus4
e|----------------|------------|----------------|------------|----------------|------------|
B|----------------|------------|----------------|------------|----------------|------------|
G|----------------|------------|----------------|------------|----------------|------------|
D|-7--7--7--7.....|-7--10-9--8-|-7--7--7--7.....|-7--10-9--8-|-7--7--7--7.....|-7--10-9--8-|
A|-7--7--7--7.....|-7--7--6--5-|-7--7--7--7.....|-7--7--6--5-|-7--7--7--7.....|-7--7--6--5-|
E|-10-10-10-10....|------------|-10-10-10-10....|------------|-10-10-10-10....|------------|
 |                |
G|----------------|\
D|----------------| \X 6
A|-0--------0-0-0-| /
E|----------------|/

e|------------|----------|
B|------------|----------|
G|------------|----------|
D|-7--10-9--8-|-7-9-10-11|
A|-7--7--6--5-|-7........|
E|------------|----------|
 |
G|------------|----------|
D|------------|-2........|
A|-0-10--9--8-|-0-0-0--0-|
E|------------|----------|

Part D2 (After These 8 Bars Just Start Again From The Beggining Of Part E)

G|-------------------------|-------------------------|-------------------------|-------------------------|
D|-------------------------|---------------------6---|-------------------------|---------------------6---|
A|-5-7-8-7-------6-5-----3-|-5-7-8-7-------6-5-------|-5-7-8-7-------6-5-----3-|-5-7-8-7-------6-5-------|
E|---------8-5-6-----5-4---|---------8-5-6-----5---4-|---------8-5-6-----5-4---|---------8-5-6-----5---4-|

G|-------------------------|-------------------------|-------------------------|-------------------------|
D|-------------------------|---------------------6---|-------------------------|---------------------6---|
A|-5-7-8-7-------6-5-----3-|-5-7-8-7-------6-5-------|-5-7-8-7-------6-5-----3-|-5-7-8-7-------6-5-------|
E|---------8-5-6-----5-4---|---------8-5-6-----5---4-|---------8-5-6-----5-4---|---------8-5-6-----5---4-|
Comments