Nobuo Uematsu - On The Other Side Of The Mountain Chords & Tabs

 

On The Other Side Of The Mountain Chords & Tabs

Nobuo Uematsu Chords & Tabs

Version: 1 Type: Tab 0 ratings
1 star 2 stars 3 stars 4 stars 5 stars
comments

On The Other Side Of The Mountain Tab

On The Other Side Of The Mountain
Written by: Nobuo Uematsu
Originally powertabbed by: Fonze
Retabbed for UG.com by: Steve 'DeeperShade' Dwyer

e|-2----0--------|---------------|-2---0--------|---------------|
B|----------3----|-2----2-3-2----|---------3----|-2----2-3-2----|
G|----2---2---2--|----2-------2--|---2---2---2--|----2-------2--|
D|-0-------------|---------------|-0------------|---------------|
A|------4---2----|-0-------------|-----4---2----|-0-------------|
E|---------------|---------------|--------------|---------------|
[ Tab from: http://www.guitartabs.cc/tabs/n/nobuo_uematsu/on_the_other_side_of_the_mountain_tab.html ]
e|---------------|---------------|--------------|---------------|
B|-0----2---3----|-2----2-3-2----|-0---2---3----|-2----2-3-2----|
G|----0---2---4--|----2-------2--|---0---2---4--|----2-------2--|
D|---------------|---------------|--------------|---------------|
A|------0---2----|-0-------------|-----0---2----|-0-------------|
E|-3-------------|---------------|-3------------|---------------|

e|-2----0--------|---------------|-2---0--------|---------------|
B|----------3----|-2----2-3-2----|---------3----|-2----2-3-2----|
G|----2---2---2--|----2-------2--|---2---2---2--|----2-------2--|
D|-0-------------|---------------|-0------------|---------------|
A|------4---2----|-0-------------|-----4---2----|-0-------------|
E|---------------|---------------|--------------|---------------|

e|-2----0---5----|---------------|--------------|---------------|
B|---------------|-3--------3-5--|-7-------5----|-3-------------|
G|----2---2---2--|----4---3------|---2-0-2---2--|----2---2------|
D|-0--------4----|------5--------|--------------|-0----4---0----|
A|------4--------|---------------|-0-------0----|---------------|
E|---------------|-3-------------|--------------|---------------|
Comments