Nobuo Uematsu - Jenovas Theme Chords & Tabs

 

Jenovas Theme Chords & Tabs

Nobuo Uematsu Chords & Tabs

Version: 1 Type: Tab 0 ratings
1 star 2 stars 3 stars 4 stars 5 stars
comments

Jenovas Theme Tab

   
		     -------------------------------------------------------------------------------
			     Jenova's theme - Nobuo Uematsu
-------------------------------------------------------------------------------
Tabbed by: sether
Email: Slag@satx.rr.com

Tuning:standard


e|--18-17-------------------|
B|-------18-15--------------| repeat 20x
G|------------15-14---------|
D|-----------------15-------|
A|--------------------17----|
E|--------------------------|

e|--16-15-----------------|
B|-------16-13------------|
G|------------13-12-------| repeat 4x
D|-----------------13-----|
A|-------------------15---|
E|------------------------|

e|--15-14------------------|
B|-------15-12-------------|
G|------------12-11--------| repeat 4x
D|-----------------12------|
A|-------------------14----|
E|-------------------------|

e|------------------------------------|
B|----------------------------8~--10~-|
G|-7~----9~---10~--7~--9~-10~---------|
D|------------------------------------|
A|------------------------------------|
E|------------------------------------|
[ Tab from: http://www.guitartabs.cc/tabs/n/nobuo_uematsu/jenovas_theme_tab.html ]
e|-----------------------------------------------|
B|------------------------------------11~----13~-|
G|-10~---12~--13~----10~---12~--13~--------------|
D|-----------------------------------------------|
A|-----------------------------------------------|
E|-----------------------------------------------|

e|-------------------------------------------|
B|-13~--12~--10~----13~--12~--10~------------|
G|--------------------------------5~--7~--9~-|
D|-------------------------------------------|
A|-------------------------------------------|
E|-------------------------------------------|

e|--------------------------------------------|
B|-11~--10~--8~----11~--10~--8~---------------|
G|-------------------------------3~--5~--7~---|
D|--------------------------------------------|
A|--------------------------------------------|
E|--------------------------------------------|

thats it theres another part to it that sounds like a trumpet and i cant get the exact notes. but enjoy

| /  slide up
| \  slide down
| h  hammer-on
| p  pull-off
| ~  vibrato
| +  harmonic
| x  Mute note
Comments