Nobuo Uematsu - Aeris Theme Chords & Tabs

 

Aeris Theme Chords & Tabs

Nobuo Uematsu Chords & Tabs

Version: 1 Type: Bass Tab 0 ratings
1 star 2 stars 3 stars 4 stars 5 stars
comments

Aeris Theme Bass Tab

Song: Aeris' Theme
Composer: Nobuo Uematsu
CD: Final Fantasy VII OST

Listen to the song to nail the timing. It's not too difficult.

G|---2-7--5-2---|
D|-4----------2-|
A|--------------|
E|--------------|
[ Tab from: http://www.guitartabs.cc/tabs/n/nobuo_uematsu/aeris_theme_btab.html ]
G|---2-7-6-9-7-4-6-2----|
D|-4------------------2-|
A|----------------------|
E|----------------------|

G|---2-7--5-2----|
D|-4-----------2-|
A|---------------|
E|---------------|

G|------------------|
D|-0h2-0--5-4-0-2-0-|
A|------------------|
E|------------------|
Comments