Noah Gundersen - David Chords & Tabs

 

David Chords & Tabs

Noah Gundersen Chords & Tabs

Version: 1 Type: Tab 0 ratings
1 star 2 stars 3 stars 4 stars 5 stars
comments

David Tab

   
Tabbed by: Cotton

Email: relic_7@hotmail.com
Tuning: Standard EADGBE


INTRO 
e|---------------------------------------------------------------|
B|---------------------------------------------------------------|
G|---------------------------------------------------------------|
D|---0h2-2-0h2-2-0h2-2-0h2-2-----0----4--------------------------|x4
A|---------------------------------------------------------------|
E|-0---------------------------3----5----------------------------|


VERSE
e|---------------------------------------------------------------|
B|---------------------------------------------------------------|
G|-----------------------0------0--------------------------------|
D|---0h2-2-0h2-2-0----0------4-----------------------------------|
A|---------------------------------------------------------------|
E|-0---------------3------5--------------------------------------|

[ Tab from: http://www.guitartabs.cc/tabs/n/noah_gundersen/david_tab.html ]
CHORUS (this is the part i'm a bit iffy on)
e|---------------------------------------------------------------|
B|-------0---------------------0---------------------------------|
G|-----0---0--------0--------0---0--------0-------0--------------|
D|---4------------2---0----4------------2---0---0----------------|
A|--------------2---------------------2--------------------------|
E|-3----------0----------3----------0---------3------------------|
I wanna hunt like david


BEGINNING OF VERSE 2 THEN BACK TO NORMAL VERSE
e|---------------------------------------------------------------|
B|---------------------------------------------------------------|
G|-----------------------0------0--------------------------------|
D|---0h2-2-x---x-------0------4----------------------------------|
A|---------x---x-------------------------------------------------|
E|-0-------x---x-----3------5------------------------------------|



| /  slide up
| \  slide down
| h  hammer-on
| p  pull-off
| ~  vibrato
| +  harmonic
| x  Mute note
Comments