Noah And The Whale - Give It All Back Chords & Tabs

 

Give It All Back Chords & Tabs

Noah And The Whale Chords & Tabs

Version: 1 Type: Tab

Give It All Back Tab

-----------------------------------------------------------------------
                GIVE IT ALL BACK - Noah And The Whale
-----------------------------------------------------------------------

Tabbed by: AppeaseOurPride
Email: cjcadigan@hotmail.com

Tuning: Standard
Capo: 7th


Notes: This is the "Live From RAK Studios" version.
I tabbed this by ear.


Verse (Piano)

e|------------0-0-2-2-5-5-3-------------0-2------------|
B|----3-3-3-3-------------------3-3-3-3-----0-0--------|
G|----------------------------------------------2-2----|
D|-----------------------------------------------------|
A|-----------------------------------------------------|
E|-----------------------------------------------------|

Verse (Guitar)

e|-----------------------------------------------------|
B|-----------------------------------------------------|
G|------2----------2----------2------------------------|
D|----0---0-4----0---0-4----0---0-5----5-4-2-0---------|
A|-----------------------------------------------------|
E|-----------------------------------------------------|

Chorus (Piano)
[ Tab from: http://www.guitartabs.cc/tabs/n/noah_and_the_whale/give_it_all_back_tab.html ]
e|--5----|      |--3-3-3-3--2-2-2-2-2-2-2-2--0-0--5-5-5-----|
B|----3--|      |---3-3-3-3--3-3-3-3-3-3-3-3--3-3--3-3-3----|
G|-------| x18  |-------------------------------------------|
D|-------|      |-------------------------------------------|
A|-------|      |-------------------------------------------|
E|-------|      |-------------------------------------------|

e|------3-3-2-0---2-0---5-5-0-2---3-2-0---2-0--5-5-5-5-5-5-5-----|
B|----3---------3------3-3-3-----------3------3-3-3-3-3-3-3-3----|
G|---------------------------------------------------------------|
D|---------------------------------------------------------------|
A|---------------------------------------------------------------|
E|---------------------------------------------------------------|


Chorus (Guitar)

e|--3--| |--0--| |--0--| |--0--| |--3--|
B|--3--| |--3--| |--3--| |--3--| |--3--|
G|--0--| |--2--| |--2--| |--2--| |--0--|
D|--0--| |--0--| |--0--| |--0--| |--0--|
A|--2--| |--0--| |--0--| |--0--| |--2--|
E|--3--| |--2--| |--0--| |--2--| |--3--|


Outro (Piano)

e|----3-3-2-0-----3-2-0---0---3-2-0-----3-2-0---0------|
B|------------3-3-------3---3-------3-0-------3---3----|
G|-----------------------------------------------------|
D|-----------------------------------------------------|
A|-----------------------------------------------------|
E|-----------------------------------------------------|

Outro (Guitar)

e|--0--| |--0--| |--3--|
B|--3--| |--3--| |--3--| 
G|--2--| |--2--| |--0--| 
D|--0--| |--2--| |--0--| 
A|--0--| |--0--| |--2--| 
E|--2--| |--0--| |--3--| 


Dave Grohl is the king of Rock and Roll.