Noah And The Whale - 2 Atoms In A Molecule Chords & Tabs

 

2 Atoms In A Molecule Chords & Tabs

Noah And The Whale Chords & Tabs

Version: 5 Type: Tab

2 Atoms In A Molecule Tab

Noah And The Whale - 2 Atoms In A Molecule

Standard Tuning
No Capo

It either goes like this:

e ------------------------------------------------------|
a ------------------------------------------------------|
d ------------------------------------------------------|
g --9-9p6-----7-7p6-----7-6-------2---2-----------------|
b -7---------9---------4---7-----2-2h4------------------|
E ------------------------------------------------------|

Or like this:
[ Tab from: http://www.guitartabs.cc/tabs/n/noah_and_the_whale/2_atoms_in_a_molecule_tab_ver_5.html ]
e ------------------------------------------------------|
a ------------------------------------------------------|
d ------------------------------------------------------|
g --9-9p6-----7-7p6-----7-7p6-----2---2-----------------|
b -7---------9---------4---------2-2h4------------------|
E ------------------------------------------------------|

p - pull off
h - hammer on

They're the same except for the third part. 
I think the first one is right but the second one sounds good too.