No Vacancy - Fight Chords & Tabs

 

Fight Chords & Tabs

No Vacancy Chords & Tabs

Version: 2 Type: Tab 0 ratings
1 star 2 stars 3 stars 4 stars 5 stars
comments

Fight Tab

Heyer guys this what I think the song sounds like I haven't figured out the solo yet so 
oh and it's also my firs tab I'm pretty sure it's ok so if your cool with what I wrote 
praise me            * = mute  ~~~~ = vibrato  / =  slide   b = bent      p = pull off

Rhythm guitar intro
e-------------------------------------------|
b-------------------------------------------|
g----5----/---7---*-*-*-*-*-*-*-*-*---------|
d----5---/----7---*-*-*-*-*-*-*-*-*---------|
a----3--/-----5---*-*-*-*-*-*-*-*-*---------|
E-------------------------------------------|
Repeat through out the lead intro and make it 5 mutes In stead of 10

Lead intro

e---------------------------------|
b---------------------------------|
g----7-9-10-9-7-5-----------------|
d---------------------7~~~--------|
a---------------------------------|
E---------------------------------|

 Main riff 1
e-------------------------------------|
b-------------------------------------|
g----7-5-7/10-7-5-7---7---------------|
d----------------------5----5---------|
a-------------------------------------|
E-------------------------------------|
     2
e-------------------------------------|
b-------------------------------------|
g----7-5-7/10-7-5-7-------------------|
d-----------------------5-~~----------|
a-------------------------------------|
E-------------------------------------|
      3
e---------------------------------------------------------------|
b---------------------------------------------------------------|
g----7-5-7/10-7-5-7----7----7---7---7----------rhythm-----------|
d-----------------------5----5----5---5---5-------5--5--5-------|
a--------------------------------------------------- 5--5--5----|
E---------------------------------------------------3--3--3-----|

Bass bit then

Verse rhythm


e---------------------------------------------------------------------------|
b---------------------------------------------------------------------------|
g---------------------------------------------------------------------------|
d--3-*-*-*-*-*-*-*-*-*-3------5--*-*-*-*-*-*-*-*-*----7---7-----9--10--12---|
a--3-*-*-*-*-*-*-*-*-*-3------5--*-*-*-*-*-*-*-*-*----7---7-----9--10--12---|
E--1-*-*-*-*-*-*-*-*-*1-------3--* *-*-*-*-*-*-*-*----5---5-----7---8---10--|

Bass bit again then

e---------------------------------------------------------------------------|
b---------------------------------------------------------------------------|
g---------------------------------------------------------------------------|
d--3-*-*-*-*-*-*-*-*-*---3---5--*-*-*-*-*-*-*-*-*--5---7--7--7--7--7--7--7--|
a--3-*-*-*-*-*-*-*-*-*---3---5--*-*-*-*-*-*-*-*-*--5---7--7--7--7--7--7--7--|
E--1-*-*-*-*-*-*-*-*-*--1---3---*-*-*-*-*-*-*-*-*-3---5--5--5--5--5--5--5---|
             Chorus lead

e-----------------------------------------------------------------|
b-----------------------------------------------------------------|
g-----7-7-7-9-10-9-7-5------------------------7-7-9-10-9-7-10b-9--|
d----------------------------7 7-7 8-7--5-------------------------|
a------------------------------------------ -5--------------------|
E-----------------------------------------------------------------|

 (Rhythm going through that lead bit, use the same pattern that I show here through the lead bit).
[ Tab from: http://www.guitartabs.cc/tabs/n/no_vacancy/fight_tab_ver_2.html ]
lead and rhythm chorus                       chorus pattern shown here

e------------------------------------------------------------------------------------|
b------------------------------------------------------------------------------------|
g------------------------------------------------------------------------------------|
d-----5---*-*-*-*-*-*-*-*-*-*----3---*-*-*-*-*-*-*-*-*-*-----------------------------|
a-----5---*-*-*-*-*-*-*-*-*-*----3---*-*-*-*-*-*-*-*-*-*-----------------------------|
E----3---*-*-*-*-*-*-*-*-*-*----1----*-*-*-*-*-*-*-*-*-*-----------------------------|

e-----------------------------------------------------------|   Back to the rhythm intro at the top
b-----------------------------------------------------------|
g------7-5-7/10-7-5-7---7------7-5-7/10-7-5-7---------------|
d-------------------------5---5------------------------5~~--|
a-----------------------------------------------------------|
E-----------------------------------------------------------|
Back to verse stuff again
Little lead bit here

e---------------------|
b---------------------|
g----7-5--------------|
d---------7-5---------|
a--------------8b-----|
E---------------------|


Bass bit then

e---------------------------------------------------------------------------------|
b---------------------------------------------------------------------------------|
g---------------------------------------------------------------------------------|
d----3-*-*-*-*-*-*-*-*-*---3---5--*-*-*-*-*-*-*-*-*---5----7--7---9--10------12---|
a----3-*-*-*-*-*-*-*-*-*---3---5--*-*-*-*-*-*-*-*-*---5----7--7---9---10-----12---|
E----1-*-*-*-*-*-*-*-*-*---1---3--*-*-*-*-*-*-*-*-*--3-----5--5--7-----8------10--|

e----------------------------------------------------------------------------|
b----------------------------------------------------------------------------|
g----------------------------------------------------------------------------|
d----3--*-*-*-*-*-*-*-*-*--3----5--*-*-*-*-*-*-*-*-*--7---7--7---7--7--7--7--|
a----3--*-*-*-*-*-*-*-*-*--3---5--*-*-*-*-*-*-*-*-*--7----7--7---7--7--7--7--|
E----1--*-*-*-*-*-*-*-*-*--1---3--*-*-*-*-*-*-*-*-*-5----5--5---5--5--5--5---|

 2nd Chorus (lead bit)

e----------------------------------------------------------------------------------|
b----------------------------------------------------------------------------------|
g----7-7-7-9-10-9-7-5--------------------7-7-9-10-9-7-10b-9------------------------|
d--------------------------7-7-7-8-7-5-------------------------------5-------3-----|
a-----------------------------------------5-----------------------------5-------3--|
E-----------------------------------------------------------------------3-------1--|


Solo


e--------------------------------------------------------------------------------------|
b--------------------------------------------------------------------------------------|
g------------------7-5-7/10-7-5-7---7----7-5-7/10-7-5-7-----------7-5------------------|
d-------5--3-------------------------5---5---------------------5~~~--------7-5---------|
a-------5--3------------------------------------------------------------------------8--|
E------3--1----------------------------------------------------------------------------|
The end enjoy                L.B             Rock on
Comments